Him - Sigilum Diaboli tab

Info:   \    ->  Slide down
        r    ->  Released   
	  b	 ->  Bending
	  br	 ->  Bend & Release
	  ~	 ->  Vibrato
	  -	 ->  Muted

     
Verse1 (after 4 times) 6x E||----------------------------||--------------------------|B||----------------------------||--------------------------|G||*--------------------------*||--4--4--4--4--4--4--4--4--|D||*--6--6--6--6--6--6--6--6--*||--4--4--4--4--4--4--4--4--|A||---6--6--6--6--6--6--6--6---||--2--2--2--2--2--2--2--2--|E||---4--4--4--4--4--4--4--4---||--------------------------|
|--------------------------||----------------------------|||--------------------------||----------------------------|||--------------------------||*--------------------------*|||--4--4--4--4--4--4--4--4--||*--6--6--6--6--6--6--6--6--*|||--4--4--4--4--4--4--4--4--||---6--6--6--6--6--6--6--6---|||--2--2--2--2--2--2--2--2--||---4--4--4--4--4--4--4--4---||
|--------------------------|--------------------------||--------------------------|--------------------------||--4--4--4--4--4--4--4--4--|--------------------------||--4--4--4--4--4--4--4--4--|--4--4--4--4--4--4--4--4--||--2--2--2--2--2--2--2--2--|--4--4--4--4--4--4--4--4--||--------------------------|--2--2--2--2--2--2--2--2--|
Chorus1 |--------------------------|-------------------------||--------------------------|-------------------------||*-------------------------|-------------------------||*--4--6--6--6----6--6--6--|--4--6--6--6----6--6--6--||---4--6--6--6----6--6--6--|--4--6--6--6----6--6--6--||---2--4--4--4----4--4--4--|--2--4--4--4----4--4--4--|
|--------------------------------|------------------------|||--------------------------------|------------------------|||--------------------------------|-----------------------*|||--11--13--13--13----13--13--13--|--9----9--9--8----8----*|||--11--13--13--13----13--13--13--|--9----9--9--8----8-----|||--9---11--11--11----11--11--11--|--7----7--7--6----6-----||
|-------------------|-------------------||------------------------||--7--5--7--5----7--|-5---7--5--7--5----||--------7--5--7--5----7-||--6--6--6--6----6--|-6---6--6--6--6----||*-------6--6--6--6----6-||--4--4--4--4----4--|-4---4--4--4--4--4-||*-4--4--4--4--4--4----4-||-------------------|-----------------4-||--4--4------------------||-------------------|-------------------||------------------------| |------------|
3x|-------------------------|||--5----7--5----7--5------|||--6----6--6----6--6-----*|||--4----4--4----4--4--4--*|||---------------------4---|||-------------------------|| |---|
Verse2|--------------------------|------------------------||--------------------------|------------------------||*--6/-8--8--8--8--8--8--8-|-6/-8--8--8--8--8--8--8-||*-------------------------|------------------------||--------------------------|------------------------||--------------------------|------------------------|
|--------------------------|---------------------------|||--------------------------|---------------------------|||--6/-8--8--8--8--8--8--8--|--6--6--6--6--6--6--6--6--*|||--------------------------|--------------------------*|||--------------------------|---------------------------|||--------------------------|---------------------------||
Chorus2 |--------------------------|-------------------------||--------------------------|-------------------------||*-------------------------|-------------------------||*--4--6--6--6----6--6--6--|--4--6--6--6----6--6--6--||---4--6--6--6----6--6--6--|--4--6--6--6----6--6--6--||---2--4--4--4----4--4--4--|--2--4--4--4----4--4--4--|
|--------------------------------|------------------------|||--------------------------------|------------------------|||--------------------------------|-----------------------*|||--11--13--13--13----13--13--13--|--9----9--9--8----8----*|||--11--13--13--13----13--13--13--|--9----9--9--8----8-----|||--9---11--11--11----11--11--11--|--7----7--7--6----6-----||
Bridge1 |-----------------|-------------------||-----------------------||-7--5--7--5---7--|--5--7--5--7--5----||--------7--5--7--5--7--||-6--6--6--6---6--|--6--6--6--6--6----||*-------6--6--6--6--6--||-4--4--4--4---4--|--4--4--4--4--4--4-||*-4--4--4--4--4--4--4--||-----------------|-----------------4-||--4--4-----------------||-----------------|-------------------||-----------------------| |----------|
3x |--------------------||----------------------|------------------||-5--7--5---7--5-----||-------9--7--9--7--9--|-7-9--7--9--7-----||-6--6--6---6--6----*||-------8--8--8--8--8--|-8-8--8--8--8-----||-4--4--4---4--4--4-*||-4--4--6--6--6--6--6--|-6-6--6--6--6--6--||-----------------4--||-4--4-----------------|---------------6--||--------------------||----------------------|------------------| |-----------| |---|
|----------------------|------------------|----------------------||-------9--7--9--7--9--|-7--9--7--9--7----|-----10--8-10--8--10--||-------8--8--8--8--8--|-8--8--8--8--8----|-----9---9-9---9--9---||-6--6--6--6--6--6--6--|-6--6--6--6--6--6-|-6-6-7---7-7---7--7---||-6--6-----------------|----------------6-|-6-6------------------||----------------------|------------------|----------------------| |----| |--------|
|--------------------------|----------------------------------||--8----10--8----10--8--8--|--10--10--10--10--10--10--10--10--||--9----9---9----9---9--9--|--9---9---9---9---9---9---9---9---||--7----7---7----7---7--7--|--7---7---7---7---7---7---7---7---||--------------------------|----------------------------------||--------------------------|----------------------------------|
|----------------------------------||--10--10--10--10--10--10--10--10--||--9---9---9---9---9---9---9---9---||--7---7---7---7---7---7---7---7---||----------------------------------||----------------------------------|
Chorus3 |--------------------------|-------------------------||--------------------------|-------------------------||*-------------------------|-------------------------||*--4--6--6--6----6--6--6--|--4--6--6--6----6--6--6--||---4--6--6--6----6--6--6--|--4--6--6--6----6--6--6--||---2--4--4--4----4--4--4--|--2--4--4--4----4--4--4--|
4x|--------------------------------|------------------------|||--------------------------------|------------------------|||--------------------------------|-----------------------*|||--11--13--13--13----13--13--13--|--9----9--9--8----8----*|||--11--13--13--13----13--13--13--|--9----9--9--8----8-----|||--9---11--11--11----11--11--11--|--7----7--7--6----6-----||
Bridge2 |--------------------------|-------|-------------------------||--------------------------|-------|-------------------------||*--------------------9----|-------|-------------------------||*--2--2--2--2--2--2--9----|-------|--2--2--2--2--2--2-------||---2--2--2--2--2--2--7----|-------|--2--2--2--2--2--2--4~---||---0--0--0--0--0--0-------|-------|--0--0--0--0--0--0-------|
|-----------------|-------------------------|----------------||-----------------|-------------------------|----------------||-----------------|--------------------9----|----------------||-----------------|--2--2--2--2--2--2--9----|----------------||---6~-------7~---|--2--2--2--2--2--2--7----|----------------||-----------------|--0--0--0--0--0--0-------|----------------|
SOLO |------------------------|------------||-----------------------||------------------------|------------||-----------------------||------------------------|------2~---*||*----------------------||--2--2--2--2--2--2------|-----------*||*-4--6--6--6--6--6--6--||--2--2--2--2--2--2--4~--|-2~---------||--4--6--6--6--6--6--6--||--0--0--0--0--0--0------|------------||--2--4--4--4--4--4--4--|
|-------------------------|--------------------------------||-------------------------|--------------------------------||-------------------------|--------------------------------||--4--6--6--6----6--6--6--|--11--13--13--13----13--13--13--||--4--6--6--6----6--6--6--|--11--13--13--13----13--13--13--||--2--4--4--4----4--4--4--|--9---11--11--11----11--11--11--|
4x Bridge3 (after 7 times) 15x |------------------------||-------------------------------|||------------------------||-------------------------------|||-----------------------*||*-----------------------------*|||--9----9--9--8----8----*||*-----------------------------*|||--9----9--9--8----8-----||-------------------------------|||--7----7--7--6----6-----||-------------------------------||
Chorus End |-----------||-------------------------|------------------------||-----------||-------------------------|------------------------||---20\-----||*------------------------|------------------------||---20\-----||*--4--6--6--6---6--6--6--|--4--6--6--6---6--6--6--||---20\-----||---4--6--6--6---6--6--6--|--4--6--6--6---6--6--6--||---20\-----||---2--4--4--4---4--4--4--|--2--4--4--4---4--4--4--|
4x|--------------------------------|------------------------|||--------------------------------|------------------------|||--------------------------------|-----------------------*|||--11--13--13--13----13--13--13--|--9----9--9--8----8----*|||--11--13--13--13----13--13--13--|--9----9--9--8----8-----|||--9---11--11--11----11--11--11--|--7----7--7--6----6-----||
|---------------------------|--------------------------||---------------------------|--------------------------||*--------------------------|--------------------------||*--6--6--6--6--6--6--6--6--|--6--6--6--6--6--6--6--6--||---6--6--6--6--6--6--6--6--|--6--6--6--6--6--6--6--6--||---4--4--4--4--4--4--4--4--|--4--4--4--4--4--4--4--4--|
4x|--------------------------------|--------------------------|||--------------------------------|--------------------------|||--------------------------------|-------------------------*|||-13--13--13--13--13--13--13--13-|-9--9--9--9--8--8--8--8--*|||-13--13--13--13--13--13--13--13-|-9--9--9--9--8--8--8--8---|||-11--11--11--11--11--11--11--11-|-7--7--7--7--6--6--6--6---||
|-------------------|------------------|------------------|||-------------------|------------------|------------------|||-------------------|------------------|------------------|||--6----------------|------------------|------------------|||--6----------------|------------------|------------------|||--4----------------|------------------|------------------||
SOLO
E||--------------------------|B||--------------------------|G||--------------11\13-13-13-|D||--------------------------|A||--------------------------|E||--------------------------|
|--------------------------------------------------||--------------------------------------------------||--13-13-13-13-13-13-13-13-13-13-13-13-13-13-13-13-||--------------------------------------------------||--------------------------------------------------||--------------------------------------------------|
|------------------------------------|----------------------||------------------------------------|----------------------||-11--13-13-13--11--13-13-13--11--13-|-11--13-13-13--13~----||------------------------------------|----------------------||------------------------------------|----------------------||------------------------------------|----------------------|
|-------------------|--------------------|----------------------||-------------------|--------------------|--------------7h9p7---||-6b--6b-6br-6b-6~--|--6br-4--6--4--6--4-|------6b---8--------8-||-------------------|--------------------|--6~------------------||-------------------|--------------------|----------------------||-------------------|--------------------|----------------------|
|-------------------------------|-------------------------------||--7--------9--9h12p9----9------|-------------------------------||-----11b-------------11----12b-|---11--11h13p11----11--6b---4--||-------------------------------|----------------13-------------||-------------------------------|-------------------------------||-------------------------------|-------------------------------|
|---------------------|--------------------|--------------------||---------------------|--------------------|--------------------||-4h6p4---4--6--4-----|--6b--6b-6br-6b-6~--|-4h-6-4h-6-4h-6--8--||-------6----------6~-|--------------------|--------------------||---------------------|--------------------|--------------------||---------------------|--------------------|--------------------|
|---------------------------|------------------7h9p7---7h9p7---||-----------7h9p7---7h9-7---|--7h9p7---7h9p7-9-------9-------9-||------8----------8-------8-|--------8-------------------------||---------------------------|----------------------------------||---------------------------|----------------------------------||---------------------------|----------------------------------|
|--------------------|-----------9b----------11~-|-----------||--8b-----9~---------|----11b-9-------11b-9------|-----------||--------------------|---------------------------|-----------||--------------------|---------------------------|-----------||--------------------|---------------------------|-----------||--------------------|---------------------------|-----------|
|--------------------|-------------------|------------------||--------------------|--7~---------------|------------------||----------19\-------|-------------------|------------------||--------------------|-------------------|------------------||--------------------|-------------------|------------------||--------------------|-------------------|------------------|
|------------------|-------------------|------------------------||------------------|-------------------|-----9--9-9-9-9-9-9-9-9-||-7--6~---6--7--6--|--6--7--6--4--7-6--|------------------------||------------------|-------------------|--6~--------------------||------------------|-------------------|------------------------||------------------|-------------------|------------------------|
|--------------------------------------------||--9-9-9-9-11--11-11-11-11-11-11-11-11-11-11-||--------------------------------------------||--------------------------------------------||--------------------------------------------||--------------------------------------------|
|------------------------------------------------||--11-11-12--12-12-12-12-12-12-12-12-12-12-12-12-||------------------------------------------------||------------------------------------------------||------------------------------------------------||------------------------------------------------|
|----------------------------------------------|-------|||--14--14-14-14-14-14-14-14-14-14-14-14-14-14~-|-------|||----------------------------------------------|-------|||----------------------------------------------|-------|||----------------------------------------------|-------|||----------------------------------------------|-------||
Verse1 I can't see as I'm facing your pityful lies Don't have the strength to carry your heavy load of life Chorus1 I'm your christ and I want you I just woke up for hearse and you know it as well as I do oh Verse2 I can't see through your eyes, bring your tears on me I will leave the body for your shoulder you just have to killing Chorus2 I'm your christ and I want you I just woke up for hearse and you know it as well as I do Bridge1 Oh as well as I do Oh as well as I do Just as well as I do Oh as well as I do Oh as well as I do Chorus3 So I'm your christ and I want you I just woke up for hearse and you know it as well as I do So I'm your christ and I want you I just woke up for hearse and you know it as well as I do Bridge2 Oh, so you've come from above and you say you want to and I kill myself for your love I'm killing myself for you, yes you SOLO Bridge3 I can't see as I face your pityful lies Don't have the strength to carry your heavy load of life Chorus End I'm your christ and I want you I just woke up for hearse and you know it as well as I do I'm your christ and I want you I just woke up for hearse and you know it as well as I do Yes you do Yes you do, my Darling Yes you do..oh Yes you do, oh my Love
Tap to rate this tab
 
# A B C D E F G H I J K L M N O P Q R S T U V W X Y Z