Him – Dont Let It Go tab

Band: HIM
Song: Dont Let It Go
Tuning: Standard
TheMutts (halo2k@forerunners.org)



////////////////////////////////////////////////////////////////////////////E||------------------|------|------|------|------------------------|B||------------------|------|------|------|------------------------|G||------------------|------|------|------|------------------------|D||------------------|------|------|------|------------------------|A||------------------|------|------|------|--2--------5------------|E||------------------|------|------|------|--0--------3----5-7-5-3-|
-------------------|------------------------|--------------------|-------------------|------------------------|--------------------|-------------------|------------------------|--------------------|-------------------|--5---------------------|--2--------7--------|--7----------------|--3--------5------------|--0--------5--------|--5----------------|-----------3----5-7-5-3-|--------------------|
------------------------|-------------------|------------------------|------------------------|-------------------|------------------------|------------------------|-------------------|------------------------|------------------------|-------------------|--5---------------------|--2--------5------------|--7----------------|--3--------5------------|--0--------3----5-7-5-3-|--5----------------|-----------3----5-7-5-3-|
--------------------|----------------------------------|--------------------|----------------------------------|--------------------|----------------------------------|--2--------7--------|----------------------------------|--0--------5--------|----------------------------------|--------------------|--0-0-0-0-0-0-0-0-3-3-3-3-3-3-3-3-|
----------------------------------|----------------------------------|----------------------------------|----------------------------------|----------------------------------|----------------------------------|--0-0-0-0-0-0-0-0-----------------|----------------------------------|------------------0-0-0-0-0-0-0-0-|--3-3-3-3-3-3-3-3-----------------|----------------------------------|------------------3-3-3-3-3-3-3-3-|
----------------------------------|----------------------------------|----------------------------------|----------------------------------|----------------------------------|----------------------------------|--0-0-0-0-0-0-0-0-0-0-0-0-0-0-0-0-|----------------------------------|----------------------------------|----------------------------------|----------------------------------|--0-0-0-0-0-0-0-0-3-3-3-3-3-3-3-3-|
----------------------------------|----------------------------------|----------------------------------|----------------------------------|----------------------------------|----------------------------------|--0-0-0-0-0-0-0-0-----------------|----------------------------------|------------------0-0-0-0-0-0-0-0-|--3-3-3-3-3-3-3-3-----------------|----------------------------------|------------------3-3-3-3-3-3-3-3-|
----------------------------------|------------------------|-------------------|----------------------------------|------------------------|-------------------|--------2-2-2-2-2-2-2-2-2-2-2-2-2-|------------------------|-------------------|--0-0-0-0-0-0-0-0-0-0-0-0-0-0-0-0-|------------------------|-------------------|----------------------------------|--2--------5------------|--7----------------|----------------------------------|--0--------3----5-7-5-3-|--5----------------|
------------------------|--------------------|------------------------|------------------------|--------------------|------------------------|------------------------|--------------------|------------------------|--5---------------------|--2--------7--------|------------------------|--3--------5------------|--0--------5--------|--2--------5------------|-----------3----5-7-5-3-|--------------------|--0--------3----5-7-5-3-|
-------------------|------------------------|--------------------|-------------------|------------------------|--------------------|-------------------|------------------------|--------------------|-------------------|--5---------------------|--2--------7--------|--7----------------|--3--------5------------|--0--------5--------|--5----------------|-----------3----5-7-5-3-|--------------------|
----------------------------------|----------------------------------|----------------------------------|----------------------------------|----------------------------------|----------------------------------|----------------------------------|--0-0-0-0-0-0-0-0-----------------|----------------------------------|------------------0-0-0-0-0-0-0-0-|--0-0-0-0-0-0-0-0-3-3-3-3-3-3-3-3-|----------------------------------|
----------------------------------|----------------------------------|----------------------------------|----------------------------------|----------------------------------|----------------------------------|----------------------------------|--0-0-0-0-0-0-0-0-0-0-0-0-0-0-0-0-|--3-3-3-3-3-3-3-3-----------------|----------------------------------|------------------3-3-3-3-3-3-3-3-|----------------------------------|
----------------------------------|----------------------------------|----------------------------------|----------------------------------|----------------------------------|----------------------------------|----------------------------------|--0-0-0-0-0-0-0-0-----------------|----------------------------------|------------------0-0-0-0-0-0-0-0-|--0-0-0-0-0-0-0-0-3-3-3-3-3-3-3-3-|----------------------------------|
----------------------------------|----------------------------------|----------------------------------|----------------------------------|----------------------------------|--------2-2-2-2-2-2-2-2-2-2-2-2-2-|----------------------------------|--0-0-0-0-0-0-0-0-0-0-0-0-0-0-0-0-|--3-3-3-3-3-3-3-3-----------------|----------------------------------|------------------3-3-3-3-3-3-3-3-|----------------------------------|
------------------------|-------------------|------------------------|------------------------|-------------------|------------------------|------------------------|-------------------|------------------------|------------------------|-------------------|--5---------------------|--2--------5------------|--7----------------|--3--------5------------|--0--------3----5-7-5-3-|--5----------------|-----------3----5-7-5-3-|
--------------------|------------------------|-------------------|--------------------|------------------------|-------------------|--------------------|------------------------|-------------------|--2--------7--------|------------------------|-------------------|--0--------5--------|--2--------5------------|--7----------------|--------------------|--0--------3----5-7-5-3-|--5----------------|
------------------------|--------------------|----------|----------|----------|------------------------|--------------------|----------|----------|----------|------------------------|--------------------|----------|----------|----------|--5---------------------|--2--------7--------|----------|----------|----------|--3--------5------------|--0--------5--------|----------|----------|----------|-----------3----5-7-5-3-|--------------------|----------|----------|----------|
----------|----------|----------|----------|----------|----------|----------|----------|----------|----------|----------|----------|----------|----------|----------|----------|----------|----------|----------|----------|----------|----------|----------|----------|----------|----------|----------|----------|----------|----------|----------|----------|----------|----------|----------|----------|----------|----------|----------|----------|----------|----------|
----------|----------|----------|----------|-----------------|----------|----------|----------|----------|-----------------|----------|----------|----------|----------|-----------------|----------|----------|----------|----------|-----------------|----------|----------|----------|----------|-----------------|----------|----------|----------|----------|-----------------|
------------------------|-------------------|------------------------|------------------------|-------------------|------------------------|------------------------|-------------------|------------------------|------------------------|-------------------|--5---------------------|--2--------5------------|--7----------------|--3--------5------------|--0--------3----5-7-5-3-|--5----------------|-----------3----5-7-5-3-|
--------------------|------------------------|-------------------|--------------------|------------------------|-------------------|--------------------|------------------------|-------------------|--2--------7--------|------------------------|-------------------|--0--------5--------|--2--------5------------|--7----------------|--------------------|--0--------3----5-7-5-3-|--5----------------|
------------------------|--------------------|------------------------|------------------------|--------------------|------------------------|------------------------|--------------------|------------------------|--5---------------------|--2--------7--------|------------------------|--3--------5------------|--0--------5--------|--2--------5------------|-----------3----5-7-5-3-|--------------------|--0--------3----5-7-5-3-|
-------------------|------------------------|--------------------|-------------------|------------------------|--------------------|-------------------|------------------------|--------------------|-------------------|--5---------------------|--2--------7--------|--7----------------|--3--------5------------|--0--------5--------|--5----------------|-----------3----5-7-5-3-|--------------------|
------------------------|-------------------|------------------------|------------------------|-------------------|------------------------|------------------------|-------------------|------------------------|------------------------|-------------------|--5---------------------|--2--------5------------|--7----------------|--3--------5------------|--0--------3----5-7-5-3-|--5----------------|-----------3----5-7-5-3-|
--------------------|--------------------|--------------------|--------------------|--------------------|--------------------|--------------------|--------------------|--------------------|--2--------7--------|--2--------5--------|--------------------|--0--------5--------|--2--------5--------|--------------------|--------------------|--0--------3--------|--5--7--5--3--------|
-------------------||-------------------||--6----------------||--6----------------||--4----------------||-------------------||
originally tabbed by: Blake submitted by: TheMutts
Please rate this tab:
x1.0