Him - Deep Shadows And Brilliant Highlights tab

Submitted by: TheMutts (halo2k@forerunners.org)

Note: I would like to thanks to authors for these tabs. NOTE: I (TheMutts)
do not take credit at all for these tabs. I simply compiled the most accurate
tabs and put this album together so you can find all the songs in here.

HIM - Deep Shadows & Brilliant Highlights

1. Salt in Our Wounds
2. Heartache Every Moment
3. Lose You Tonight
4. In Joy and Sorrow
5. Pretending
6. Close to the Flame
7. Please Don't Let It Go
8. Beautiful
9. Don't Close Your Heart (chords)
10. Lover You Like I Do (chords)


1. Salt in Our Wounds

Intro|-----------------------------------------------||-----------------------------------------------||-----------------------------------------------||-----------------------------------------------||-----------------------------------------------||--0-3-5-8-5-0-3-5-12-5-0-3-5-------------------|
Chorus|--------------------------------------------------||--------------------------------------------------||-10--10-------------------------------------------| x4|-10--10---5--7--3--10-----------------------------||--8---8---5--7--3--10-----------------------------||----------3--5--1---8-----------------------------|
After Chorus|---------------------------------------------------||---------------------------------------------------||---------------------------------------------------||---------------------------------------------------||---------------------------------------------------||-5-0-3-5--12-5-------------------------------------|
Play Chorus again
Solo (this isnt all of it but its roughly the begining bit)|------------------------------------------------------------------||------8------------------------------8--10---8---10---8-----------||-9-9----9-9-9-7-5-7-5-7-9-10-7-------------9--------9---9---------||------------------------------------------------------------------||------------------------------------------------------------------||------------------------------------------------------------------|
Play Chorus again
This is also being played on the last chorus|------------------------------------------------------||--8--10--8--10--8--10--8--10 etc----------------------||------------------------------------------------------||------------------------------------------------------||------------------------------------------------------||------------------------------------------------------|
2. Heartache Every Moment
Intro:1|-------------------|-------|2|-------------------|-------|3|----3---6--3-------|--3----|4|-3--1---6--1----3--|--3----|5|-3--1---4--1----3--|--1----|6|-1--------------1--|-------| F5 Eb5 Db5 Eb5 F5 Eb5
Verse1|-----------------------------|2|-----------------------------|3|-----6-----6-----6--3-----6--|4|--3--6--3--6--3--6--1--3--6--|5|--3--4--3--4--3--4--1--3--4--|6|--1-----1-----1--------1-----|
Chorus1|------------------------------------------------------------------|2|------------------------------------------------------------------|3|----3--6--3----6--3----6--3-----3------3-6-3----6--3-----6--3--3--|4|-3--1--6--1-3--6--1-3--6--1--3--1---3--1-6-1-3--6--1--3--6--1--1--|5|-3--1--4--1-3--4--1-3--4--1--3--1---3--1-4-1-3--4--1--3--4--1--1--|6|-1----------1-------1--------1------1--------1--------1-----------|
Solo: ( the Chorus)
Bridge:1|-------------------3---|2|-------------------4---|3|--6--3------3------3---|4|--6--1--3---1------1---|5|--4--1--3---1----------|6|--------1--------------|
Song Formation: Intro Verse Chorus Verse Chorus Solo Bridge Chorus 3. Lose You Tonight normal tuning
do this a couple of timese-----------------------|b-----------------------|g-----------------------|d-----------------------|a-----------------------|
e42424242424-42424242424then transfer toe-----------------------|b-----------------------|g-----------------------|d-----------------------|a-----------------------|e64646464646-64646464646
then the verse with just bass
choruse(4)-(6)------(3)--------|(4)b(4)-(6)------(3)--------|(4)g(4)-(6)------(3)--------|(4)d-4---6--------3-------4-|a-4---6--------3-------4-|e-2---4--------1-------2-|
little solo kinda thing
e------------------------------------------|b-s7-----s7-6-4-4h6--2-----s6---s6-4-2-2h4-|g----------------------3-------------------|d------------------------------------------|a------------------------------------------|e------------------------------------------|
e-6----6-8-8s9-8-4----9---11s13-11-9-9h11-|b-6----------------6--9-------------------|g-6-------------------9-------------------|d-8---------------------------------------|a-----------------------------------------|e-----------------------------------------|then to chorus and then to second intro riff out
4. In Joy and Sorrow
Acoustic Guitar|---------------------------|--------------0-----------||---------------3-----------|-----------------3-----3--||---------0--------0-----0--|--------0-----------0-----||------2-----2--------2-----|-----0-----0--------------||---3-----------------------|--2-----------------------||---------------------------|--------------------------|
beim 2. mal Violaeinsatz|--------------------------|---------------------------||--------------1-----------|--0-----------1------------||--------2--------2--------|-----2-----------2---------||-----2-----2--------2-----|--------2------------------||--0--------------------0--|-----------0--------0--2---||--------------------------|---------------------------|
|--------------------------|--------------0-----------||--------------3-----------|-----------------3-----3--||--------0--------0-----0--|--------0-----------0-----||-----2-----2--------2-----|-----0-----0--------------||--3-----------------------|--2-----------------------||--------------------------|--------------------------|
|--------------1-----------|--------------------------||--------3--------3-----3--|--------------1-----------||-----2-----2--------2-----|--------2--------2--------||--0-----------------------|-----2-----2--------------||--------------------------|--0-----------------0--2--||--------------------------|--------------------------|
|--------------------------|--------------0-----------||--------------3-----------|-----------------3-----3--||--------0--------0-----0--|--------0-----------0-----||-----2-----2--------2-----|-----0-----0--------------||--3-----------------------|--2-----------------------||--------------------------|--------------------------|
|--------------------------|-------------------0------||--------------------------|-------------------0------||--------------0-----------|--1----------------1------||--------2--------2--------|-----2-------------2------||-----2-----2--------2--2--|--------2--2-------2------||--0-----------------------|-------------------0------|
Refrain 1,2
Am 2 mal|--0-0--0--0--0--0---|-0--0--0--0--0--0--|--3---3--3---3--3--3--||--1-1--1--1--1--1---|-1--1--1--1--1--1--|--3---3--3---3--3--3--||--2-2--2--2--2--2---|-0--0--0--0--0--0--|--0---0--0---0--0--0--||--2-2--2--2--2--2---|-2--2--2--2--2--2--|--0---0--0---0--0--0--||--0-0--0--0--0--0---|-3--3--3--3--3--3--|--2---2--2---2--2--2--||--------------------|-------------------|--3---3--3---3--3--3--|
F 2 mal|--1-1--1--1--1--1---|-0--0--0--0--0--0--|--3--3--3----3--3--3--||--1-1--1--1--1--1---|-1--1--1--1--1--1--|--3--3--3----3--3--3--||--2-2--2--2--2--2---|-0--0--0--0--0--0--|--0--0--0----0--0--0--||--3-3--3--3--3--3---|-2--2--2--2--2--2--|--0--0--0----0--0--0--||--3-3--3--3--3--3---|-3--3--3--3--3--3--|--2--2--2----2--2--2--||--1-1--1--1--1--1---|-------------------|--3--3--3----3--3--3--|
Am 2 mal|--0-0--0--0--0--0---|-0--0--0--0--0--0--|--3--3--3----3--3--3--||--1-1--1--1--1--1---|-1--1--1--1--1--1--|--3--3--3----3--3--3--||-2-2--2--2--2--2----|-0--0--0--0--0--0--|--0--0--0----0--0--0--||-2-2--2--2--2--2----|-2--2--2--2--2--2--|--0--0--0----0--0--0--||--0-0--0--0--0--0---|-3--3--3--3--3--3--|--2--2--2----2--2--2--||--------------------|-------------------|--3--3--3----3--3--3--|
F 2 mal|--1--1--1--1--1--1---|-0--0--0--0--0--0--|-3--3--3----3--3--3--||--1--1--1--1--1--1---|-1--1--1--1--1--1--|-3--3--3----3--3--3--||--2--2--2--2--2--2---|-0--0--0--0--0--0--|-0--0--0----0--0--0--||--3--3--3--3--3--3---|-2--2--2--2--2--2--|-0--0--0----0--0--0--||--3--3--3--3--3--3---|-3--3--3--3--3--3--|-2--2--2----2--2--2--||--1--1--1--1--1--1---|-------------------|-3--3--3----3--3--3--|
Refrain 3 Bm 2 mal|---2----2--2----2--2--2---|--2----2--2----2--2--2--||---3----3--3----3--3--3---|--3----3--3----3--3--3--||---4----4--4----4--4--4---|--2----2--2----2--2--2--||---4----4--4----4--4--4---|--0----0--0----0--0--0--||---2----2--2----2--2--2---|------------------------||--------------------------|------------------------|
G 2 mal|-0-0--0--0--0--0--|--3--3--3--3--3--3---|-2--2--2----2--2--2--||-2-2--2--2--2--2--|--0--0--0--0--0--0---|-3--3--3----3--3--3--||-2-2--2--2--2--2--|--0--0--0--0--0--0---|-2--2--2----2--2--2--||-2-2--2--2--2--2--|--0--0--0--0--0--0---|-0--0--0----0--0--0--||-0-0--0--0--0--0--|--2--2--2--2--2--2---|---------------------||------------------|--3--3--3--3--3--3---|---------------------|
Bm 2 mal|-0-0--0--0--0--0--|--2--2--2--2--2--2---|-2--2--2----2--2--2--||-2-2--2--2--2--2--|--3--3--3--3--3--3---|-3--3--3----3--3--3--||-2-2--2--2--2--2--|--4--4--4--4--4--4---|-2--2--2----2--2--2--||-2-2--2--2--2--2--|--4--4--4--4--4--4---|-0--0--0----0--0--0--||-0-0--0--0--0--0--|--2--2--2--2--2--2---|---------------------||------------------|---------------------|---------------------|
G 2 mal|-0-0--0--0--0--0--|--3--3--3--3--3--3---|-2--2--2----2--2--2--||-2-2--2--2--2--2--|--0--0--0--0--0--0---|-3--3--3----3--3--3--||-2-2--2--2--2--2--|--0--0--0--0--0--0---|-2--2--2----2--2--2--||-2-2--2--2--2--2--|--0--0--0--0--0--0---|-0--0--0----0--0--0--||-0-0--0--0--0--0--|--2--2--2--2--2--2---|---------------------||------------------|--3--3--3--3--3--3---|---------------------|
Bm 2 mal|-0-0--0--0--0--0--|--2--2--2--2--2--2---|-2--2--2----2--2--2--||-2-2--2--2--2--2--|--3--3--3--3--3--3---|-3--3--3----3--3--3--||-2-2--2--2--2--2--|--4--4--4--4--4--4---|-2--2--2----2--2--2--||-2-2--2--2--2--2--|--4--4--4--4--4--4---|-0--0--0----0--0--0--||-0-0--0--0--0--0--|--2--2--2--2--2--2---|---------------------||------------------|---------------------|---------------------|
G 2 mal|-0-0--0--0--0--0--|--3--3--3--3--3--3---|-2--2--2----2--2--2--||-2-2--2--2--2--2--|--0--0--0--0--0--0---|-3--3--3----3--3--3--||-2-2--2--2--2--2--|--0--0--0--0--0--0---|-2--2--2----2--2--2--||-2-2--2--2--2--2--|--0--0--0--0--0--0---|-0--0--0----0--0--0--||-0-0--0--0--0--0--|--2--2--2--2--2--2---|---------------------||------------------|--3--3--3--3--3--3---|---------------------|
Bm 2 mal|-0-0--0--0--0--0--|--2--2--2--2--2--2---|-2--2--2----2--2--2--||-2-2--2--2--2--2--|--3--3--3--3--3--3---|-3--3--3----3--3--3--||-2-2--2--2--2--2--|--4--4--4--4--4--4---|-2--2--2----2--2--2--||-2-2--2--2--2--2--|--4--4--4--4--4--4---|-0--0--0----0--0--0--||-0-0--0--0--0--0--|--2--2--2--2--2--2---|---------------------||------------------|---------------------|---------------------|
G 2 mal|-0-0-0--0--0--0--|---3--3--3--3--3--3---|-2--2--2----2--2--2--||-2-2-2--2--2--2--|---0--0--0--0--0--0---|-3--3--3----3--3--3--||-2-2-2--2--2--2--|---0--0--0--0--0--0---|-2--2--2----2--2--2--||-2-2-2--2--2--2--|---0--0--0--0--0--0---|-0--0--0----0--0--0--||-0-0-0--0--0--0--|---2--2--2--2--2--2---|---------------------||-----------------|---3--3--3--3--3--3---|---------------------|
|--0----0--0----0--0--0--||--2----2--2----2--2--2--||--2----2--2----2--2--2--||--2----2--2----2--2--2--||--0----0--0----0--0--0--||------------------------|
Refrain 1,2 (Electric Guitar)
|-------------|------------------|--------------------||-------------|------------------|--------------------||-------------|------------------|--------------------||-------------|------------------|--------------------||--7----------|------------------|--10----------------||--5----------|------------------|--8-----------------|
|---------------|-------------|-----------|--------------------||---------------|-------------|-----------|--------------------||---------------|-------------|-----------|--------------------||---------------|-------------|-----------|--------------------||--5------------|--3----------|-----------|--10----------------||--3------------|--1----------|-----------|--8-----------------|
|--------------------|-------------------|------------------||--------------------|-------------------|------------------||--------------------|-------------------|------------------||--------------------|-------------------|------------------||--5--------6--------|--7----------------|------------------||--3--------4--------|--5----------------|------------------|
|-----------|-------------------|--------|------------------||-----------|-------------------|--------|------------------||-----------|-------------------|--------|------------------||-----------|-------------------|--------|------------------||--10-------|--5----------------|--3-----|------------------||--8--------|--3----------------|--1-----|------------------|
|--------------------|-------------------||--------------------|-------------------||--------------------|-------------------||--------------------|-------------------||--10----------------|--5----------------||--8-----------------|--3----------------|
BRIDGE
3x|-----------------------|--------------------|----------------||-----------------------|--------------------|----------------||-----------------------|--------------------|----------------||------7----------------|--------------------|------7---------||------7----------------|--------------------|------7---------||------5----------------|--------------------|------5---------|
|------------|------------------------|-------------------------||------------|------------------------|-------------------------||------------|------------------------|-------------------------||------------|------7--7--7--7--7--7--|--7--7--7--7--7--7--7----||------------|------7--7--7--7--7--7--|--7--7--7--7--7--7--7----||------------|------5--5--5--5--5--5--|--5--5--5--5--5--5--5----|
Refrain 3 (Electric Guitar)
|--------------------|------------------|--------------------||--------------------|------------------|--------------------||--------------------|------------------|--------------------||--------------------|------------------|--------------------||---9----------------|------------------|--12----------------||---7----------------|------------------|--10----------------|
|-------------|-------------|-------------|--------------------||-------------|-------------|-------------|--------------------||-------------|-------------|-------------|--------------------||-------------|-------------|-------------|--------------------||--7----------|--5----------|-------------|--12----------------||--5----------|--3----------|-------------|--10----------------|
|--------------------|--------------------|--------------------||--------------------|--------------------|--------------------||--------------------|--------------------|--------------------||--------------------|--------------------|--------------------||--7--------8--------|--9-----------------|--------------------||--5--------6--------|--7-----------------|--------------------|
|-------------|-------------|-------------|--------------------||-------------|-------------|-------------|--------------------||-------------|-------------|-------------|--------------------||-------------|-------------|-------------|--------------------||--12---------|--7----------|--5----------|--------------------||--10---------|--5----------|--3----------|--------------------|
|--------------------|--------------------||--------------------|--------------------||--------------------|--------------------||--------------------|--------------------||--12----------------|--7-----------------||--10----------------|--5-----------------|
5. Pretending
introe---------------------------0---------------------------------|b------2---------4---------0-0--------4-------2-------4-------|g-------2---------4--------------------4----2--2-------4------|d----2---2-----4---4-----6-----------4--4--2-2--2----4--4-4/6-|a0-----------2--------/4--------4-2-------0-------2-------2/4-|e-------------------------------------------------------------|
cont.e-------------------------------------------------------|b-------------------------------------------------------|g-------------------------------------------------------|d--2--2/4----2---2/4---4-2---------------------------9--|a4--4------4---4----------4-2--0h2p0--/5---/77777777-7--|e-------------------------------------------------------|
e---------------------------0-----------------------------|b------2---------4---------0-0--------4-------2-------4---|g-------2---------4--------------------4----2--2-------4--|d----2---2-----4---4-----6-----------4--4--2-2--2----4--4-|a0---------2----------/4--------4-2-------0-------2-------|e---------------------------------------------------------|
cont.e-----0----0-----|b----0-0-4--0-4--|g---------4----4-|d--6-------------|a4---------------|e----------------|
e---------------------------0---------------------------------|b------2---------4---------0-0--------4-------2-------4-------|g-------2---------4--------------------4----2--2-------4------|d----2---2-----4---4-----6-----------4--4--2-2--2----4--4-4/6-|a0---------2----------/4--------4-2-------0-------2-------2/4-|e-------------------------------------------------------------|
e-------------------------------------------------------|b-------------------------------------------------------|g-------------------------------------------------------|d-------------------------------------------------------|a--2--2/4----2---2/4---4-2---------------------------9--|e4--4------4---4----------4-2--0h2p0--/5---/77777777-7--|
e---------------------------0-----------------------------|b------2---------4---------0-0--------4-------2-------4---|g-------2---------4--------------------4----2--2-------4--|d----2---2-----4---4-----6-----------4--4--2-2--2----4--4-|a0---------2----------/4--------4-2-------0-------2-------|e---------------------------------------------------------|
cont.e-----0----0-----|b----0-0-4--0-4--|g---------4----4-|d--6-------------|a4---------------|e----------------|
e---------------------------0-----------------------------|b------2---------4---------0-0--------4-------2-------4---|g-------2---------4--------------------4----2--2-------4--|d----2---2-----4---4-----6-----------4--4--2-2--2----4--4-|a0---------2----------/4--------4-2-------0-------2-------|e---------------------------------------------------------|
cont.e-----0----0-----|b----0-0-4--0-4--|g---------4----4-|d--6-------------|a4---------------|e----------------|
here's where the solo is, i don't know it so figure it out yourself or have someone else do it. here's the stuff behind the solo
e---------------------------------------------------|b---------------------------------------------------|g2-----4-----6--6/4-----2----4--6668889991111119988-|d2-----4-----6--6/4-----2----4--xxxxxxxxxx-x-x-xxxx-|a0-----2-----4--4/2-----0----2--4446667779-9-9-7766-|e---------------------------------------------------|
e---------------------------0---------------------------------|b------2---------4---------0-0--------4-------2-------4-------|g-------2---------4--------------------4----2--2-------4------|d----2---2-----4---4-----6-----------4--4--2-2--2----4--4-4/6-|a0---------2----------/4--------4-2-------0-------2-------2/4-|e-------------------------------------------------------------|
pm-----------------|e------------------|b------------------|g------------------|
d666666666666666-6/a444444444444444-4/ do a giant slide downe-----------------
e---------------------------0-----------------------------|b------2---------4---------0-0--------4-------2-------4---|g-------2---------4--------------------4----2--2-------4--|d----2---2-----4---4-----6-----------4--4--2-2--2----4--4-|a0---------2----------/4--------4-2-------0-------2-------|e---------------------------------------------------------|
e-------------------|b-------------------|
g6668889991111119988dxxxxxxxxxx-x-x-xxxxa4446667779-9-9-7766-|e--------------------|
e---------------------------0---------------------------------|b------2---------4---------0-0--------4-------2-------4-------|g-------2---------4--------------------4----2--2-------4------|d----2---2-----4---4-----6-----------4--4--2-2--2----4--4-4/6-|a0---------2----------/4--------4-2-------0-------2-------2/4-|e-------------------------------------------------------------|
6. Close to the Flame
Em Hm D CE|--0----2---2---0--|B|--0----3---3---1--|G|--0----4---2---0--|D|--2---4---0---2--|A|--2---2-------3--|E|--0---2-------3--|
Intro: Em, Hm, C, D x2 Verse 1: Em D C Hm Em D C Hm The kiss, sweetest and touch, so warm, Em D C Hm Em D C Hm The smile, kindest in this world, so cold and strong. Refrain: Em Hm So close to the flame, C D Burning brightly, Em Hm Won't fade away, C D Leave this moment. Verse 2: Em D C Hm Em The arms, safest and... (I didn't figured these words out, but chords are the same) Em D C Hm Em D C Hm The faith, deepest in this world, so cold and cruel. Em, Hm, C, D
|--------------------------------------------------------------||--------------------------------------------------------------||--------------------------------------------------------------||--------------------------------------------------------------||--5/7---7--5--7--7/9--5--5/7\2--2/7--10---12-12-12-12-12/////-||--------------------------------------------------------------|
7. Please Don't Let It Go Chords:
Em Am G D CE|---0---0---3---2---0---|B|---0---1---0---3---1---|G|---0---2---0---2---0---|D|---2---2---0---0---2---|A|---2---0---2-------3---|E|---0-------3-------3---|
Intro: Em, G, D, Am, C, G, D, Verse 1: Em G We're drifting apart, D Am But I want you to know, C G D Wherever you are I belong. Em G Love's singing our song, D Am But we fail to sing along, C G D Wherever you go I will follow, Refrain: Em G D Am So, please don't let it, please don't let it go, C G D Cause if you won't let it, I won't let it go, Em G D Am So, please don't let it, please don't let it go, C G D Cause if you won't let it, I won't let it go, Verse 2: You try to be strong, But you're always so alone, Whatever I do, I do it wrong. Death sings our song, And we eagerly sing along, Whatever you do, I adore, I adore, Bridge: Am Don't let go of life, C Let go of love, G (D) Let go of all we have. Am So, don't let go of trust, C Let go of lust, G (D) Let go of all we share, All we share... 8. Beautiful
|-------------------------------------------------------------------------------||-------------------------------------------------------------------------------||-------------------------------------------------------------------------------||-------------------------------------------------3-~---------------------------||-6-6-6-6-6-6-6---9-9-9-9-9-9-9---4-4-4-4-4-4-4---3-~---------------------------||-6-6-6-6-6-6-6---9-9-9-9-9-9-9---4-4-4-4-4-4-4---1-~---------------------------||-4-4-4-4-4-4-4---7-7-7-7-7-7-7---2-2-2-2-2-2-2---------------------------------|
|------------------------------------------------------------------------||------------------------------------------------------------------------||------------------------------------------------------------------------||-9-9-9-9-9-9-9---11-11-11-11-11-11-11---13-~----------------------------||-9-9-9-9-9-9-9---11-11-11-11-11-11-11---13-~----------------------------||-7-7-7-7-7-7-7---9--9--9--9--9--9--9----11-~----------------------------|
|------------------------------------------------------------------------------||------------------------------------------------------------------------------||-------------------------------------------------6-6-6-6-6-6-6----------- x 2-||-8-8-8-8-8-8-8---9-9-9-9-9-9-9---4-4-4-4-4-4-4---6-6-6-6-6-6-6----------------||-8-8-8-8-8-8-8---9-9-9-9-9-9-9---4-4-4-4-4-4-4---4-4-4-4-4-4-4----------------||-6-6-6-6-6-6-6---7-7-7-7-7-7-7---2-2-2-2-2-2-2--------------------------------|
9. Don't Close Your Heart (chords) Intro: D5 G5 (Synth) Verse 1: G5 D5 I know how it feels to be on your own G5 In this cruel world where hearts D5 are bound to turn to stone Em Where you are alone D A And tired of breathing Em It's all going wrong D A And you just can't stand the pain Em Anymore D A Em You're too numb to believe in A In anything Chorus: G5 D5 A5 B5 Baby just don't close your heart G5 D5 A5 B5 Baby just don't close your heart G5 D5 A5 B5 Baby just don't close your heart E5 G5 A5 Darling don't let me down Verse 2: G5 D5 I know how easy it is to let go G5 D5 Surrender to despair lurking at your door Em D A To lose your soul and all your feelings Em Strenght all gone D A And so many things left unsaid Em And deeds undone D A You've stopped caring A Cause it's all in vain repeat Chorus SOLO (Chorus) Bridge: Em You are so alone D A And tired of breathing Em It's all going wrong A And you just can't stand the pain repeat Chorus Outro: Em G A Don't let me down Em G A Don't let me down Em G A Just don't let me down 10. Lover You Like I Do (chords)
Main Riff [Gm] [F] Fill Riffe-|---------------| e-|-------------|h-|---------------| h-|-------------|g-|---------------| g-|-------------|D-|---------------| D-|------0--1~--|A-|---------------| A-|-1--3--------|E-|-3~--5h6-1~----| E-|-------------|
Intro: 4x Main Riff, 4x Main Riff w/Chords Verse 1: Gm [Main Riff] On my heart I'll bear the shame Gm [Main Riff] [Fill Riff] No prayer can ease the pain Chorus: Eb Bb [Fill Riff] No one will love you Eb Bb F Eb No one will love you the way I do Eb Bb No one will love you Eb F [2x Main Riff] Love you like I do Verse 2: And there's no escape Just countless mistakes repeat Chorus Verse 3: It will never be the same Witness trust fade away repeat Chorus 2x Eb F Gm [Main Riff] Love you like I do (Love you like I do) Eb F Gm [Main Riff] Love you like I do (Love you like I do) Eb F Gm [Main Riff] Love you like I do (Love you like I do) Eb F Gm Love you like I do Outro: Instrumental [Main Riff] Gm
Tap to rate this tab
 
# A B C D E F G H I J K L M N O P Q R S T U V W X Y Z