Him - Greatest Love Songs 666 tab

Submitted by: TheMutts (halo2k@forerunners.org)

Note: I would like to thanks to authors for these tabs. NOTE: I (TheMutts)
do not take credit at all for these tabs. I simply compiled the most accurate
tabs and put this album together so you can find all the songs in here.


HIM - Greatest Love Songs 666

1. Your Sweet 666        
2. Wicked Game             
3. It's All Tears (Drown In This Love)        
4. When Love & Death Embrace        
5. Beginning Of The End        
6. Don't Fear The Reaper        
7. For You  








1. Your Sweet 666    

Legend:	 
          \ = Slide Up                     Tuning:  E-A-D-G-B-E
	 / = Slide Down                            (Standard)
	 ~ = Vibrato
	 b = Bend
	 r = Relase


INTRO
                                                           
E||--------------------|-------------------|--------------------|B||--------------------|-------------------|--------------------|G||--------------------|-------------------|--------------------|D||--------------------|--4~---------------|--------------------|A||-----------5\-4--0--|--2~---------------|--5--------4--------|E||--------------------|-------------------|--3--------2--------|
|-------------------|--------------------|-------------------||-------------------|--------------------|-------------------||-------------------|--------------------|-------------------||--4----------------|--------------------|--4----------------||--2----------------|--5--------4--------|--2----------------||-------------------|--3--------2--------|-------------------|
|-------------------|-----------------|------------------------||-------------------|-----------------|------------------------||-------------------|-----------------|--4--4--4--4--4--2------||-------------------|--4--------------|--4--4--4--4--4--2------| |--5-------4--------|--2--------------|--2--2--2--2--2--0------||--3-------2--------|-----------------|------------------------|
VERSE 1
|---------------------------|--------------------------||---------------------------|--------------------------||---------------------------|--------------------------||---------------------------|--7--7--7--7--7--7--7--7--||--5--5--5--5--5--5--5--5---|--5--5--5--5--5--5--5--5--||--3--3--3--3--3--3--3--3---|--------------------------|
|--------------------------|--------------------------||--------------------------|--------------------------||--------------------------|--------------------------||--------------------------|--------------------------||--4--4--4--4--4--4--4--4--|--4--4--4--4--4--4--4--4--||--2--2--2--2--2--2--2--2--|--2--2--2--2--2--2--2--2--|
|---------------------------|--------------------------||---------------------------|--------------------------||---------------------------|--------------------------||---------------------------|--4--4--4--4--4--4--4--4--||--5--5--5--5--5--5--5--5---|--2--2--2--2--2--2--2--2--||--3--3--3--3--3--3--3--3---|--------------------------|
|--------------------------|--------------------------||--------------------------|--------------------------||--------------------------|--------------------------||--------------------------|--------------------------||--4--4--4--4--4--4--4--4--|--4--4--4--4\-5/-4--------||--2--2--2--2--2--2--2--2--|--2--2--2-----------5--3~-|
|----------------------------|--------------------------||----------------------------|--------------------------||----------------------------|--------------------------||----------------------------|--7--7--7--7--7--7--7--7--||---5--5--5--5--5--5--5--5---|--5--5--5--5--5--5--5--5--||---3--3--3--3--3--3--3--3---|--------------------------|
|---------------------------|--------------------------||---------------------------|--------------------------||---------------------------|--------------------------||---------------------------|--------------------------||---4--4--4--4--4--4--4--4--|--4--4--4--4--4--4--4--4--||---2--2--2--2--2--2--2--2--|--2--2--2--2--2--2--2--2--|
|---------------------------|------------------------|--------|---------|----------||---------------------------|------------------------|--------|---------|----------||---------------------------|------------------------|--------|---------|----------||---------------------------|--4--4--4--4--4--4--4---|--------|---4~----|----7~----||--5--5--5--5--5--5--5--5--|--2--2--2--2--2--2--2----|---4~---|---4~----|----7~----||--3--3--3--3--3--3--3--3--|-------------------------|---2~---|---2~----|----5~----|
CHORUS 1
E||--------------------------|-------------------------|B||--------------------------|-------------------------|G||*-------------------------|-------------------------|D||*----------4-----5b-5r-4--|----------4-----5b-5r-4--|A||---2~---2-----2-----------|--2~---2-----2-----------|E||--------------------------|-------------------------|
|-------------------------|-------------------------||-------------------------|-------------------------||-------------------------|-------------------------||----------4-----5b-5r-4--|----------4-----5b-5r-4--||--5~---5-----5-----------|-------------------------||-------------------------|--5~---5-----5-----------|
|---------------------|----------------------|---------------------||---------------------|----------------------|---------------------||---------------------|----------------------|---------------------||--------4---5b-5r-4--|--------4----5b-5r-4--|--------4---5b-5r-4--||---------------------|----------------------|---------------------||--3~--3---3----------|--3~--3---3-----------|--3~--3---3----------|
|----------------------|||----------------------|||---------------------*|||--------4------------*|| |--0---0---0\--5-4-----|||------------------5---||
|------------|---------------|-------------------||------------|---------------|-------------------||------------|---------------|-------------------||--------4---|---------------|--------4----------||--------2---|-----5----4----|--------2----------||------------|-----3----2----|-------------------|
|--------------------|-------------------|--------------------||--------------------|-------------------|--------------------||--------------------|-------------------|--------------------||--------------------|--4----------------|--------------------||--5--------4--------|--2----------------|--5--------4--------||--3--------2--------|-------------------|--3--------2--------|
|------------------|-------------------------||------------------|-------------------------||------------------|--4--4--4--4--4--2-------||--4---------------|--4--4--4--4--4--2-------||--2---------------|--2--2--2--2--2--0-------||------------------|-------------------------|
VERSE 2
|---------------------------|---------------------------||---------------------------|---------------------------||---------------------------|---------------------------||---------------------------|--7--7--7--7--7--7--7--7---||--5--5--5--5--5--5--5--5---|--5--5--5--5--5--5--5--5---||--3--3--3--3--3--3--3--3---|---------------------------|
|---------------------------|---------------------------||---------------------------|---------------------------||---------------------------|---------------------------||---------------------------|---------------------------||--4--4--4--4--4--4--4--4---|--4--4--4--4--4--4--4--4---||--2--2--2--2--2--2--2--2---|--2--2--2--2--2--2--2--2---|
|---------------------------|---------------------------||---------------------------|---------------------------||---------------------------|---------------------------||---------------------------|--4--4--4--4--4--4--4--4---||--5--5--5--5--5--5--5--5---|--2--2--2--2--2--2--2--2---||--3--3--3--3--3--3--3--3---|---------------------------|
|---------------------------|----------------------------||---------------------------|----------------------------||---------------------------|----------------------------||---------------------------|----------------------------||--4--4--4--4--4--4--4--4---|--4--4--4--4\-5/-4----------||--2--2--2--2--2--2--2--2---|--2--2--2-----------5--3~---|
|-----------------------------|---------------------------||-----------------------------|---------------------------||-----------------------------|---------------------------||-----------------------------|--7--7--7--7--7--7--7--7---||---5--5--5--5--5--5--5--5----|--5--5--5--5--5--5--5--5---||---3--3--3--3--3--3--3--3----|---------------------------|
|-----------------------------|--------------------------||-----------------------------|--------------------------||-----------------------------|--------------------------||-----------------------------|--------------------------||---4--4--4--4--4--4--4--4----|--4--4--4--4--4--4--4--4--||---2--2--2--2--2--2--2--2----|--2--2--2--2--2--2--2--2--|
|---------------------------|------------------------|--------|---------|----------||---------------------------|------------------------|--------|---------|----------||---------------------------|------------------------|--------|---------|----------||---------------------------|--4--4--4--4--4--4--4---|--------|---4~----|----7~----||--5--5--5--5--5--5--5--5---|--2--2--2--2--2--2--2---|---4~---|---4~----|----7~----||--3--3--3--3--3--3--3--3---|------------------------|---2~---|---2~----|----5~----|
CHORUS 1
E||--------------------------|-------------------------|B||--------------------------|-------------------------|G||*-------------------------|-------------------------|D||*----------4-----5b-5r-4--|----------4-----5b-5r-4--|A||---2~---2-----2-----------|--2~---2-----2-----------|E||--------------------------|-------------------------|
|-------------------------|-------------------------||-------------------------|-------------------------||-------------------------|-------------------------||----------4-----5b-5r-4--|----------4-----5b-5r-4--||--5~---5-----5-----------|-------------------------||-------------------------|--5~---5-----5-----------|
|---------------------|----------------------|---------------------||---------------------|----------------------|---------------------||---------------------|----------------------|---------------------||--------4---5b-5r-4--|--------4----5b-5r-4--|--------4---5b-5r-4--||---------------------|----------------------|---------------------||--3~--3---3----------|--3~--3---3-----------|--3~--3---3----------|
|----------------------|||----------------------|||---------------------*|||--------4------------*|| |--0---0---0\--5-4-----|||------------------5---||
|------------|---------------|-------------------||------------|---------------|-------------------||------------|---------------|-------------------||--------4---|---------------|--------4----------||--------2---|-----5----4----|--------2----------||------------|-----3----2----|-------------------|
|--------------------|-------------------|--------------------||--------------------|-------------------|--------------------||--------------------|-------------------|--------------------||--------------------|--4----------------|--------------------||--5--------4--------|--2----------------|--5--------4--------||--3--------2--------|-------------------|--3--------2--------|
|------------|---------------| |-----|-----||------------|---------------| |-----|-----||------------|---------------| |-----|-----||--------4---|---------------| Only Voice |--4--|--4--||--------2---|-----5----4----| |--4--|--4--||------------|-----3----2----| |--2--|--2--|
CHORUS 2
E||--------------------------|-------------------------|B||--------------------------|-------------------------|G||*----------------2b-2r-1--|----------1-----2b-2r-1--|D||*----------6--------------|-------------------------|A||---4~---4-----4-----------|--4~---4-----4-----------|E||--------------------------|-------------------------|
|-----------------------|-------------------|--------------------||-----------------------|-------------------|--------------------||---------1-----2b-2r-1-|-------1---2b-2r-1-|-------1---2b-2r-1--||--2~--2-----2----------|-------------------|--------------------||-----------------------|-2~--2---2---------|-0~--0---0----------||-----------------------|-------------------|--------------------|
From Start <- 3x |----------------------||-------------------|--------------------||----------------------||-------------------|--------------------||--------1------------*||-----------2b-2r-1-|-------1---2b-2r-1--||-------------2/-1----*||-------6-----------|--------------------||--2--2----2--------2--||-4~--4---4---------|-4~--4---4----------||----------------------||-------------------|--------------------|
|-------------------------||--------------------------||-------------------------||--------------------------||----------1-----2b-2r-1--||*----------1-----2b-2r-1--||--2~---2-----2-----------||*-------------------------||-------------------------||---2~---2-----2-----------||-------------------------||--------------------------|
+--Only Below <- 7x--+ |----------------------||---------------------|----------------|||----------------------||---------------------|----------------|||--------1---2b-2r-1--*||------1--------------|--6/------------|||---------------------*||-----------2/-1------|--6/------------|||--0~--0---0-----------||-2--2---2--------2---|--4/------------|||----------------------||---------------------|----------------||
|-------------------|
ORDER|-------------------|
Intro 1 Verse 1 Chorus 1 (x2) Intro 1 Verse 1 Chorus 1 (x2) Bridge Chorus 2|-------------------|
2. Wicked Game The main riff:(intro&verse) B5 / A5 / E5 (Bm / A / E )
e------------------------------------------------- -----------------b---.-.-.-.-.-.-.---.-.-.-.-.-.-.----------------- -----------------g-4-4-4-4-4-4-4-4-2-2-2-2-2-2-2-2---.-.-.-.-----2- --1-.-.-.-.---.-.D-4-4-4-4-4-4-4-4-2-2-2-2-2-2-2-2-2-2-2-2-2-2/4--- 4-2-2-2-2-2-2-2-2A-2-2-2-2-2-2-2-2-0-0-0-0-0-0-0-0-2-2-2-2-2------- ----2-2-2-2-2-2-2E---------------------------------0-0-0-0-0------- ----0-0-0-0-0-0-0(All of the chords with dots above them are palm-muted)(I´m not sure about the tuning. It could be: DGCFAD?)
CHORUS:e---2-----0-----2---0------0-----0---0----------------0-----0-----0b-----3-----3---------2------3---------0----------------0-----0----g-------4-----4---------2------2---------1------2---------1-----1--D-4-(let ring)----2----------------2--------2/4---4-2------ --------A-2-(--------)----0----------------2----------------2--------------E----------------------------------0----------------0--------------
INTERLUDE:
e---2-----0--------------------0----------------------------b-----3-----3---3-2h3p2---2------0-------------5-----5------g-------4-----4-------------1------1-1-1/2-2/4---4-----4----D-----------------------------------------------------------A-2---------------------------------------------------------E-----------------------------------------------------------
SOLO:
e--------------------------------------------b--------------------------------------------g---9bu11--11r9----9-------------------------D-9-------------9----9-6-7---6h7p6--6h7h9----A--------------------------------------------E--------------------------------------------
3. It's All Tears (Drown In This Love) drop d My first tab but i think it is rigt cause in the end you hear it very clear low d -------6-7-6-4-6-2-|-2-4-2-1-2| then this chord! d|--222-- d|-1-2-1-2-1-2-1-2
a|--222-- and a|--------------- D|--222-- D|--------------- REPEAT THIS CHORD AS MANY TIMES AS NEEDED ( AFTER THE 1ST TIME PALM MUTE)
VERSE
e|------------------------------------------------ b|------------------------------------------------ g|--66666666----9999999---4444444----------------- d|--66666666 ---9999999---4444444----------------- a|--44444444----7777777---2222222----------------- D|------------------------------------------------
4. When Love & Death Embrace
introe-----------------------------------------------|b-----------------------------------------------|g-----------------------------------------------|D-----5-4---------------------------------------|X 2A----------2-0-2-------0-2---2b3-3r2-0----------|E-3------------------3-----------------3-2---3--|
e-----------------------------------------------|b-----------------------------------------------|g---0-/-12-11---4-2-4---0-2-4---4b5-5r4-2-0---0-|D-------------------------------------------4---|X 2A-----------------------------------------------|E-3---------------------------------------------|
Verse: G5 E5 G5 E5 I'm in love with you G5 E5 G5 E5 And it's crushing my heart G5 E5 G5 E5 All I want is you G5 E5 B5 D5 Please take me into your arms, When love and death embrace repeat Intro Verse 2: G5 E5 G5 E5 I love you G5 E5 G5 E5 And you're crushing my heart G5 E5 G5 E5 I need you G5 E5 B5 D5 Please take me into your arms, When love and death embrace Repeat Intro 5. Beginning Of The End Intro
|----------------------------------||----------------------------------||----------------------------------||----------------------------------||0--0-3-0-0-3-0-0-3-0-3-0-0-3-0-3-3||----------------------------------|
|-------------------------------||-------------------------------||-------------------------------||-------------------------------| |0-2-0-0-2-0-0-2-0-2-0-0-2-0-2-2||-------------------------------|
|-------------------------------||-------------------------------||-------------------------------||-------------------------------||0-3-0-0-3-0-0-3-0-3-0-0-3-0-3-3||-------------------------------|
|---------------------------------||---------------------------------||---------------------------------||---------------------------------||0-2-0-0-2-0-0-2-0-2-0/1/2/3/4/5/6||---------------------------------|
|-------------------------------||-------------------------------||-------------------------------||5-8-5-5-8-5-5-8-5-8-5-5-8-5-8-8||5-8-5-5-8-5-5-8-5-8-5-5-8-5-8-8||5-8-5-5-8-5-5-8-5-8-5-5-8-5-8-8|
}8X|-------------------------------||-------------------------------||-------------------------------||5-7-5-5-7-5-5-7-5-7-5-5-7-5-7-7| |5-7-5-5-7-5-5-7-5-7-5-5-7-5-7-7||5-7-5-5-7-5-5-7-5-7-5-5-7-5-7-7|
|---||---||---||5-5||5-5||5-5|
Chorus
|-------------||-------------||-------------||0---5---3---7| 2X|0---5---3---7||0---5---3---7|
Post Chorus
|-------------------------------||-------------------------------||-------------------------------||5-8-5-5-8-5-5-8-5-8-5-5-8-5-8-8||5-8-5-5-8-5-5-8-5-8-5-5-8-5-8-8||5-8-5-5-8-5-5-8-5-8-5-5-8-5-8-8|
}8X|-------------------------------||-------------------------------||-------------------------------||5-7-5-5-7-5-5-7-5-7-5-5-7-5-7-7| |5-7-5-5-7-5-5-7-5-7-5-5-7-5-7-7||5-7-5-5-7-5-5-7-5-7-5-5-7-5-7-7|
|---||---||---||5-5||5-5||5-5|
Verse
|----||----||----||5-5-||5-5-||5-5-|
Chorus
|-------------||-------------||-------------||0---5---3---7| 2X|0---5---3---7||0---5---3---7|
Post Chorus
|-------------------------------||-------------------------------||-------------------------------||5-8-5-5-8-5-5-8-5-8-5-5-8-5-8-8||5-8-5-5-8-5-5-8-5-8-5-5-8-5-8-8||5-8-5-5-8-5-5-8-5-8-5-5-8-5-8-8|
}4X|-------------------------------||-------------------------------||-------------------------------||5-7-5-5-7-5-5-7-5-7-5-5-7-5-7-7| |5-7-5-5-7-5-5-7-5-7-5-5-7-5-7-7||5-7-5-5-7-5-5-7-5-7-5-5-7-5-7-7|
Bridge
|-------------------------------||-------------------------------| |-------------------------------||-------------------------------||-------------------------------||0-3-0-0-3-0-0-3-0-3-0-0-3-0-3-3|
}4X (1st Guitar) <-|-------------------------------| ||-------------------------------| ||-------------------------------| ||-------------------------------| ||-------------------------------| ||0-2-0-0-2-0-0-2-0-2-0-0-2-0-2-2| Same Time
|
|-------------------------------| ||-------------------------------| ||-------------------------------| ||X-X-X-X-X-X-X-X-X-X-X-X-X-X-X-X| }8x (2nd Guitar) <-|X-X-X-X-X-X-X-X-X-X-X-X-X-X-X-X||X-X-X-X-X-X-X-X-X-X-X-X-X-X-X-X|
Verse
|---------||---------||---------||3-------3||3-------3||3-------3|
Chorus
|-------------||-------------||-------------| |3---7---5---0| 4X|3---7---5---0||3---7---5---0|
Outro
|--------------------------------------------||--------------------------------------------||--------------------------------------------||3-3-3-3-3-3--0-3-0-0-3-0-0-2-0-2-0-0-2-0-2-2| 2X|3-3-3-3-3-3--0-3-0-0-3-0-0-2-0-2-0-0-2-0-2-2||3-3-3-3-3-3--0-3-0-0-3-0-0-2-0-2-0-0-2-0-2-2|
|-----------------------||-----------------------||-----------------------||3-3-3-3-3-3-5-5-5-5-5-5||3-3-3-3-3-3-5-5-5-5-5-5||3-3-3-3-3-3-5-5-5-5-5-5|
|-------------------------------||-------------------------------||-------------------------------||0-3-0-0-3-0-0-3-0-3-0-0-3-0-3-3||0-3-0-0-3-0-0-3-0-3-0-0-3-0-3-3||0-3-0-0-3-0-0-3-0-3-0-0-3-0-3-3|
}8X|-------------------------------||-------------------------------||-------------------------------||0-2-0-0-2-0-0-2-0-2-0-0-2-0-2-2| |0-2-0-0-2-0-0-2-0-2-0-0-2-0-2-2||0-2-0-0-2-0-0-2-0-2-0-0-2-0-2-2|
6. Don't Fear The Reaper
Intro1 (3░giro) PIANO 5x|---------------------------|---------------------------||---------------------------|---------------------------||*--9--9--9--9--7--7--7--7--|--5--5--5--5--7--7--7--7--*||*--9--9--9--9--7--7--7--7--|--5--5--5--5--7--7--7--7--*||---7--7--7--7--5--5--5--5--|--3--3--3--3--5--5--5--5---||---------------------------|---------------------------|
Verse1 Chorus1 ORGAN 1 ORGAN 2 |--|--|--|--|------------------------||--------------------------||--|--|--|--|------------------------||--------------------------||--|--|--|--|------------------------||*-------------------------||--|--|--|--|-5--5--5--5--7--7--7--7-||*-9--9--9--9--7--7--7--7--||--|--|--|--|-3--3--3--3--5--5--5--5-||--7--7--7--7--5--5--5--5--||--|--|--|--|------------------------||--------------------------|
ORGAN 2 7x |--------------------------||--------------------------||--------------------------||--------------------------||-------------------------*||--------------------------||-5--5--5--5--7--7--7--7--*||--9--9--9--9--7--7--7--7--||-3--3--3--3--5--5--5--5---||--7--7--7--7--5--5--5--5--||--------------------------||--------------------------|
ORGAN 2 PIANO |--------------------------|------|-------||---------|----------||--------------------------|------|-------||---------|----------||--------------------------|------|-------||---------|----------||--5--5--5--5--7--7--7--7--|--9---|-------||---------|----------||--3--3--3--3--5--5--5--5--|--7---|-------||---------|----------||--------------------------|------|-------||---------|----------|
Intro2 (2░giro) PIANO 4x|---------------------------|---------------------------|||---------------------------|---------------------------|||*--9--9--9--9--7--7--7--7--|--5--5--5--5--7--7--7--7--*|||*--9--9--9--9--7--7--7--7--|--5--5--5--5--7--7--7--7--*|||---7--7--7--7--5--5--5--5--|--3--3--3--3--5--5--5--5---|||---------------------------|---------------------------||
Verse2 ORGAN 1 ORGAN 2 3x|--------|---------|---------|--------||---------|||--------|---------|---------|--------||---------|||--------|---------|---------|--------||*-------*|||--------|---------|---------|--------||*-------*|||--------|---------|---------|--------||---------|||--------|---------|---------|--------||---------||
Chorus2 ORGAN 2 |------------------------||--------------------------||------------------------||--------------------------||------------------------||*-------------------------||-5--5--5--5--7--7--7--7-||*-9--9--9--9--7--7--7--7--||-3--3--3--3--5--5--5--5-||--7--7--7--7--5--5--5--5--||------------------------||--------------------------|
ORGAN 2 7x |--------------------------||--------------------------||--------------------------||--------------------------||-------------------------*||--------------------------||-5--5--5--5--7--7--7--7--*||--9--9--9--9--7--7--7--7--||-3--3--3--3--5--5--5--5---||--7--7--7--7--5--5--5--5--||--------------------------||--------------------------|
ORGAN 2 |--------------------------|------|-------||--------------------------|------|-------| Only Bridge|--------------------------|------|-------| BRIDGE |--5--5--5--5--7--7--7--7--|--9---|-------||--3--3--3--3--5--5--5--5--|--7---|-------||--------------------------|------|-------|
PIANO|--------------|---------------|--------------|---------------||--------------|---------------|--------------|---------------||--------------|---------------|--------------|---------------||--------------|---------------|--------------|---------------||--------------|---------------|--------------|---------------||--------------|---------------|--------------|---------------|
Intro3 (3░giro) PIANO 5x|---------------------------|---------------------------||---------------------------|---------------------------||*--9--9--9--9--7--7--7--7--|--5--5--5--5--7--7--7--7--*||*--9--9--9--9--7--7--7--7--|--5--5--5--5--7--7--7--7--*||---7--7--7--7--5--5--5--5--|--3--3--3--3--5--5--5--5---||---------------------------|---------------------------|
Verse3 ORGAN 1 ORGAN 2 3x|--------|---------|---------|--------||---------|||--------|---------|---------|--------||---------|||--------|---------|---------|--------||*-------*|||--------|---------|---------|--------||*-------*|||--------|---------|---------|--------||---------|||--------|---------|---------|--------||---------||
Chorus_End ORGAN 2 |------------------------||--------------------------||------------------------||--------------------------||------------------------||*-------------------------||-5--5--5--5--7--7--7--7-||*-9--9--9--9--7--7--7--7--||-3--3--3--3--5--5--5--5-||--7--7--7--7--5--5--5--5--||------------------------||--------------------------|
ORGAN 2 7x |--------------------------||--------------------------||--------------------------||--------------------------||-------------------------*||--------------------------||-5--5--5--5--7--7--7--7--*||--9--9--9--9--7--7--7--7--||-3--3--3--3--5--5--5--5---||--7--7--7--7--5--5--5--5--||--------------------------||--------------------------|
ORGAN 2 |--------------------------|------|-------||--------------------------|------|-------||--------------------------|------|-------||--5--5--5--5--7--7--7--7--|--9---|-------||--3--3--3--3--5--5--5--5--|--7---|-------||--------------------------|------|-------|
PIANO
E |-------12----------------|-------------------------|B |----12----15----------15-|----------15----------15-|G |-------------------14----|----12-14----------14----|D |-14----------12-15-------|-------------12-15-------|A |-------------------------|-15----------------------|E |-------------------------|-------------------------|
ORGAN 1
E |-----|-0-|-----|-0---|B |-1-3-|-0-|-1-0-|-0-3-|G |-0-2-|-0-|-0---|-0-2-|D |-2-4-|---|-2-4-|---4-|A |-----|---|---5-|-----|E |-----|---|-----|-----|
ORGAN 2
E |-----|-0---|B |-1-3-|-0-3-|G |-0-2-|-0-2-|D |-2-4-|---4-|A |-----|-----|E |-----|-----|
BRIDGE
|-----3-----3-----||-1-4---1-4---1-4-||-----------------||-----------------||-----------------||-----------------|
|-3-----3-----3---|---2-----2-----2-|-----2-----2-----|-3-----3-----3---||---1-4---1-4---1-|-3---1-3---1-3---|-1-3---1-3---1-4-|---1-4---1-4---1-||-----------------|-----------------|-----------------|-----------------||-----------------|-----------------|-----------------|-----------------||-----------------|-----------------|-----------------|-----------------||-----------------|-----------------|-----------------|-----------------|
|---3-----3-----2-|-----2-----2-----|-2-----2-----3---|---3-----3------3-||-4---1-4---1-3---|-1-3---1-3---1-3-|---1-3---1-4---1-|-4---1-4---1-4----||-----------------|-----------------|-----------------|------------------||-----------------|-----------------|-----------------|------------------||-----------------|-----------------|-----------------|------------------||-----------------|-----------------|-----------------|------------------|
|-----3-----2-----|-2-----2-----2---|---2-----3-----3-|-----3-----3------||-1-4---1-3---1-3-|---1-3---1-3---1-|-3---1-4---1-4---|-1-4---1-4----1-4-||-----------------|-----------------|-----------------|------------------||-----------------|-----------------|-----------------|------------------||-----------------|-----------------|-----------------|------------------||-----------------|-----------------|-----------------|------------------|
|-3-----2-----2---|---2-----2-----2-|-----3-----3-----||---1-3---1-3---1-|-3---1-3---1-3---|-1-4---1-4---1-4-||-----------------|-----------------|-----------------||-----------------|-----------------|-----------------||-----------------|-----------------|-----------------||-----------------|-----------------|-----------------|
|-3-----3-----3---|---2-----2-----2-|-----2-----2-----|-3-----3-----3----||---1-4---1-4---1-|-3---1-3---1-3---|-1-3---1-3---1-4-|---1-4---1-4---1--||-----------------|-----------------|-----------------|------------------||-----------------|-----------------|-----------------|------------------||-----------------|-----------------|-----------------|------------------||-----------------|-----------------|-----------------|------------------|
|---3-----3-----2-|-----2-----2-----|-2-----2-----3-----|-3-----3-----3---||-4---1-4---1-3---|-1-3---1-3---1-3-|---1-3---1-4---1-4-|---1-4---1-4---1-||-----------------|-----------------|-------------------|-----------------||-----------------|-----------------|-------------------|-----------------||-----------------|-----------------|-------------------|-----------------||-----------------|-----------------|-------------------|-----------------|
|---3-----2-----2-|-----2-----2-----|-2-----3-----3---|---3-----3-----3-||-4---1-3---1-3---|-1-3---1-3---1-3-|---1-4---1-4---1-|-4---1-4---1-4---||-----------------|-----------------|-----------------|-----------------||-----------------|-----------------|-----------------|-----------------||-----------------|-----------------|-----------------|-----------------||-----------------|-----------------|-----------------|-----------------|
|-----2-----2-----|-2-----2-----2---|---3-----3-----3-|-----3-----3-10--||-1-3---1-3---1-3-|---1-3---1-3---1-|-4---1-4---1-4---|-1-4---1-4-------||-----------------|-----------------|-----------------|-----------------||-----------------|-----------------|-----------------|-----------------||-----------------|-----------------|-----------------|-----------------||-----------------|-----------------|-----------------|-----------------|
7. For You
INTRO: (clean)e|--------------------------------------------------------------------|H|o-------------------0---------------------3---------1-----0-----3b-o|G|----------0-----2-----2---0-----------------0---------2-----2-------|D|------2-----2-----2-----2---2---------0-------0---2-----2-----2-----| X 2A|o---2---2-----2---------------------2---2-------0------------------o|E|--0---------------------------0-2-3---------------------------------|
e|----|B|-3--|G|-0--|D|-2--|A|-2--|E|-0--|PLAY THE WHOLE THING 2 TIMES(first time through u play it strum the chord slowly and quickly go back to the start,and the second time u play it strum the chord string by string and add some trem. effect!)
FIRST VERSE AFTER THE INTRO WITHOUT LYRICS: (heavy distortion)e|------------------------------------------------------|B|o----------------------------------------------------o|G|------------------------------------------------------| X 2D|------------------------------------2*-2*-2-2---------|A|o-2*--2-2*--2*--2*--2-2-1/5*--5-5*--0*-0*-0-0--3/6\4-o|E|--0*--0-0*--0*--0*--0-0-1/3*--3-3*-------------3/6\4--| -3- \_|_/______just strum -3- and slide around!
HEAVY VERSE! WITH LIYRICS! (heavy distortion) [slide in from the upbeat] e|---------------------------------------------------------------------|B|---------------------------------------------------------------------|G|---------------------------------------------------------------------|D|---------------------------------------------------------------------| X 2A|-2-2-2-2--1/5--5--5-5-5--5/1*--2--2-2-2-2--1/5*-------------------2--|E|-0-0-0-0--1/3--3--3-3-3--3/1*--0--0-0-0-0--1/3*--5-7-5--3-5-3--1--0--|pm . . . . . . . . . . . .
In the grace of your love I writhe in pain in 666 ways I love you and I hope you feel the same
CHORUS:e|------------------------------------------------------|B|o----------------------------------------------------o|G|------------------------------------------------------| X 2D|------------------------------------2*-2*-2-2---------|A|o-2*--2-2*--2*--2*--2-2-1/5*--5-5*--0*-0*-0-0--3/6\4-o|E|--0*--0-0*--0*--0*--0-0-1/3*--3-3*-------------3/6\4--| -3- \_|_/______just strum -3- and slide around! I'm for you(and I'm dying for your love)I'm for you(and my heven's wherever you are)
VERSE AGAIN: (heavy distortion)e|---------------------------------------------------------------------|B|---------------------------------------------------------------------|G|---------------------------------------------------------------------|D|---------------------------------------------------------------------| X 2A|-2-2-2-2--1/5--5--5-5-5--5/1*--2--2-2-2-2--1/5*-------------------2--|E|-0-0-0-0--1/3--3--3-3-3--3/1*--0--0-0-0-0--1/3*--5-7-5--3-5-3--1--0--|pm . . . . . . . . . . . .
I'm killing myself for your love and again all is lost in 777 ways I love you till my death do us part
CHORUS:e|------------------------------------------------------|B|o----------------------------------------------------o|G|------------------------------------------------------| X 4D|------------------------------------2*-2*-2-2---------|A|o-2*--2-2*--2*--2*--2-2-1/5*--5-5*--0*-0*-0-0--3/6\4-o|E|--0*--0-0*--0*--0*--0-0-1/3*--3-3*-------------3/6\4--| -3- _ \_|_/______just strum -3- and slide around! I'm for you \ (and I'm dying for your love) > X 2I'm for you / (and my heven's wherever you are) -
BRIDGE: (clean & soft)e|--------------------------------|B|o------------------------------o| "i'm not 100% sure about this becouse it's played onG|--------------------------------| the bass guitar!" but it's the closest!!D|--x-x-2--x-2--x-2--x-2--x-2-3---| X 2A|o-x-x-2--x-2--x-2--x-2--x-2-3--o|E|--x-x-x--x-x--x-x--x-x--x-x-x---|
INTERLUDE(SOLO): (clean)---the ahhhaaahhhaaahhaaa part------e|--------------------------------------------------------------------|H|o-------------------0---------------------3---------1-----0-----3b-o|G|----------0-----2-----2---0-----------------0---------2-----2-------|D|------2-----2-----2-----2---2---------0-------0---2-----2-----2-----| X 4A|o---2---2-----2---------------------2---2-------0------------------o|E|--0---------------------------0-2-3---------------------------------|
e|----| -\B|-3--| \G|-0--| \ Quickly get the distortion on, strum,D|-2--| / and let it ring!!A|-2--| /E|-0--| -/
in 666 ways I love you and my heaven is wherever you are
CHORUS(OUTRO): (distortion)e|------------------------------------------------------|B|o----------------------------------------------------o|G|------------------------------------------------------| X 4D|------------------------------------2*-2*-2-2---------|A|o-2*--2-2*--2*--2*--2-2-1/5*--5-5*--0*-0*-0-0--3/6\4-o|E|--0*--0-0*--0*--0*--0-0-1/3*--3-3*-------------3/6\4--| -3- \_|_/______just strum -3- and slide around!
Tap to rate this tab
 
# A B C D E F G H I J K L M N O P Q R S T U V W X Y Z