Him - Behind The Crimson Door tab


Intro befote the piano

|-------------------|-------------------|------------------|----------------||-------------------|-------------------|------------------|----------------||-------------------|-------------------|------------------|----------------||-------------------|-------------------|------------------|----------------||-7-7-7-7-7-7--7--7-|-7-7-7-7-7-7---3---|--7---5----3---2--|---5---3--2--7--||-5-5-5-5-5-5--5--5-|-5-5-5-5-5-5---3---|--7---5----3---2--|---3---3--2--5--|
|-------------------|----------------||------------------|----------------------||-------------------|----------------||------------------|----------------------||-------------------|----------------||------------------|----------------------||-------------------|----------------||------------------|----------------------||-7-7-7-7-7-7--7--7-|-7-7-7-7-7-7-3--||--7---5---3----2--|--5---3---2-------2---||-5-5-5-5-5-5--5--5-|-5-5-5-5-5-5-3--||--7---5---3----2--|--3---3---2-------0---|
when i play this song i didn't play the begining of the verse, i don't really know why, not bad, actually is pretty good, but you can play if you want
Verse|--------------0-(0)-|---------------------||-------1----0-------|------0-1----0-------||-----0----0---------|--0--------0---0-----||--------------------|---------------------||--0-----------------|---------------------||--------------------|------------------3--|
|--------------0-(0)-|---------------------||-------1----0-------|------0-1----0-------||-----0----0---------|--0--------0---0-----| x2|--2-----------------|---------------------||--------------------|------------------3--||--------------------|---------------------|
|--------------0--|------------------||-------0--1-0----|--1----0--1-------||-----0-----------|-----0------------||--2--------------|------------------||-----------------|------------------||-----------------|------------------|
|---------------------|----------------------||---------------------|----------------------||---------------------|----------------------||---------------------|----------------------||--2--2-2-2-2-2-2--2--|--2---2-2-2-2-2-2--5--||--0--0-0-0-0-0-0--0--|--0---0-0-0-0-0-0--3--|
|---------------------|----------------------||---------------------|----------------------||---------------------|----------------------||---------------------|----------------------||--5--5-5-5-5-5-5--5--|--5---5-5-5-5-5-5--3--||--3--3-3-3-3-3-3--3--|--3---3-3-3-3-3-3--3--|
|----------------------|------------------------||----------------------|------------------------||----------------------|------------------------||----------------------|------------------------||--3---3-3-3-3-3-3--5--|--5---5-5-5-5-5--5---3--||--3---3-3-3-3-3-3--3--|--3---3-3-3-3-3--3---1--|
|----------------|--------------------||----------------|--------------------||----------------|--------------------||----------------|--------------------||-(3)--3----3----|-(3)--(3)---------3-||-(1)--1----1----|-(1)--(1)/--13\---1-|
|--------------------|-------------------||--------------------|-------------------||--------------------|-------------------||--------------------|----------9-9------||-(3)--3-(3)---------|----------7-7---7--||-(1)--1-(1)/--13----|-(13)-----7-7---5--|
Chorus|------------------|------------------|------------------|------------------||------------------|------------------|------------------|------------------||------------------|------------------|------------------|------------------||------------------|------------------|------------------|------------------||-7-7-7-7-7--7-7-3-|-3-3-3-3-3--3-3-5-|-5-5-5-5-5--5-5-5-|-5-5-5-5-5-5-5-7--||-5-5-5-5-5--5-5-3-|-3-3-3-3-3--3-3-3-|-3-3-3-3-3--3-3-5-|-5-5-5-5-5-5-5-5--|
|------------------|------------------|------------------|----------------||------------------|------------------|------------------|-------------6--||------------------|------------------|------------------|-------------x--||------------------|------------------|------------------|-------------3--||-7-7-7-7-7--7-7-3-|-3-3-3-3-3--3-3-5-|-5-5-5-5-5--5-5-5-|-5-5-5-5-5-5----||-5-5-5-5-5--5-5-3-|-3-3-3-3-3--3-3-3-|-3-3-3-3-3--3-3-5-|-5-5-5-5-5-5----|
|-----------------|----------------|-----------------|----------------||-6-6-6-6-6-6-6-8-|-8-8-8-8-8-8----|-----------------|-------------6--||-x-x-x-x-x-x-x-x-|-x-x-x-x-x-x----|-----------------|-------------x--||-3-3-3-3-3-3-3-5-|-5-5-5-5-5-5----|-----------------|-------------3--||-----------------|-------------7--|-7-7-7-7-7-7-10--|-7-7-7-7---3----||-----------------|-------------5--|-5-5-5-5-5-5--8--|-5-5-5-5-3------|
|-----------------|----------------||-6-6-6-6-6-6-6-8-|-8-8-8-8-8-8----||-x-x-x-x-x-x-x-x-|-x-x-x-x-x-x----||-3-3-3-3-3-3-3-5-|-5-5-5-5-5-5----||-----------------|-------------7--||-----------------|-------------5--|
Repeat Intro and the verse and then this:
Interlude|-----------------|----------|----------|-----------------||-----------------|----------|----------|-----------------||-----------------|----------|----------|-----------------||-----------------|----------|----------|---x-x---x-x-----||-7-7--(7)\-------|----------|----------|---x-x---x-x-----||-5-5--(5)\-------|----------|----------|---x-x---x-x---5-|
|-----------------|-----------------------||-----------------|-----------------------||-----------------|-----------------------||-----------/7----|-(7)-------7h9-5-(5)---||-----------------|-----0-(0)-------------||-(5)--5----------|---------------------5-|
|-----------------|------------------------------||-----------------|------------------------------||-----------------|------------------------------||-----------/7----|-(7)-------7h9-5-(5)----------||-----------------|-----0-(0)-----------0---(0)--||-(5)--5----------|------------------------------|
|----------------------------|-----------------------||---5----3b5==(3)r(3)--------|-----------------------||----------------------5--4--|-------4b5r=(4)--(4)---||----------------------------|--5--------------------||----------------------------|-----------------------||----------------------------|---------------------0-|
Breakdown|------------------|--------------------|-----------------|--------------------||------------------|--------------------|-----------------|--------------------||------------------|--------------------|-----------------|--------------------||------------------|--------------------|-----------------|--------------------||------------/7----|-(7)----7h9-5-(5)---|-----------/7----|-(7)----7h9-5-(5)---||-(0)--(0)---------|-----0------------0-|-(0)--0----------|-----0------------0-|
|-----------------|--------------------|-----------------|---------------||-----------------|--------------------|-----------------|---------------||-----------------|--------------------|-----------------|---------------||-----------------|--------------------|-----------------|---------------||-----------/7----|-(7)----7h9-5-(5)---|-----------/7----|-(7)--------7--||-(0)--0----------|-----0------------0-|-(0)--0----------|------------5--|
Chorus x2 And then this:
Outro|-------------------|-----------------|------------------|-----------------||-------------------|-----------------|------------------|-----------------||-------------------|-----------------|------------------|-----------------||-------------------|-----------------|------------------|-----------------||--7-7-7-7-7-7--7-7-|-7-7-7-7-7-7--3--|--7---5----3---2--|---5---3--2--7---||--5-5-5-5-5-5--5-5-|-5-5-5-5-5-5--3--|--7---5----3---2--|---3---3--2--5---|
|------------------|----------------|------------------||------------------|----------------|------------------||------------------|----------------|------------------||------------------|----------------|------------------||-7-7-7-7-7-7--7-7-|-7-7-7-7-7-7-3--|--7---5---3----2--||-5-5-5-5-5-5--5-5-|-5-5-5-5-5-5-3--|--7---5---3----2--|
|----------------------| |-------------*||----------------------| |-------------*||----------------------| repeat outro x2 and |-------------*||----------------------| finish with this |-------------*||--5---3---2-------7---| |-7-7\--------*||--3---3---2-------5---| |-5-5\--------*|
have fun!!!
Tap to rate this tab
 
# A B C D E F G H I J K L M N O P Q R S T U V W X Y Z