Hives - You Dress Up For Armageddon tab

You Dress Up For Armageddon - The Hives

Tabbed by A.Master.3000

Okay so here we go, this is a great song from the new album, pretty easy and fun to 
im pretty sure its all right.

Intro

|------------------------||------------------------||-5--5--------8--8-------||-5--5--5--5--8--8--8--8-| x6|-3--3--5--5--6--6--8--8-||-------3--3--------6--6-|
2nd Guitar|----------------------------------------||----------------------------------------||----------------------------------------||----------------------------------------| x2|------8-9-10-----8-9-10-8-----8---------||-8-11--------11-----------11----11-10-8-|
First Verse
|------------------------||------------------------||-5--5--------8--8-------||-5--5--5--5--8--8--8--8-| x8|-3--3--5--5--6--6--8--8-||-------3--3--------6--6-|
"Hey believe me..." Bridge
|----------||----------||----------||-5----5-5-||-5----5-5-||-3----3-3-|
"But it's not for me, no I disagree" Chorus
|------------------------------------------------------||------------------------------------------------------||-5--5--9--9--------------10--10--10--10---------------||-5--5--9--9--7--7--7--7--10--10--10--10--10--10--5--5-||-3--3--7--7--7--7--7--7--8---8---8---8---10--10--5--5-||-------------5--5--5--5------------------8---8---3--3-|
"Cuz I heard you before when you said..."
|------------------------------------------------------------------||------------------------------------------------------------------||-5--5--9--9--14--14--14--14---------------------------------------||-5--5--9--9--12--12--14--14--3--3--3--3--555555555555555555555555-||-3--3--7--7--12--12--12--12--3--3--3--3--555555555555555555555555-||-----------------------------1--1--1--1--333333333333333333333333-|
"You dress up for Armageddon..." Second Verse
|------------------------||------------------------||-5--5--------8--8-------||-5--5--5--5--8--8--8--8-| x4|-3--3--5--5--6--6--8--8-||-------3--3--------6--6-|
2nd Guitar|----------------------------------------||----------------------------------------||----------------------------------------||----------------------------------------| x2|------8-9-10-----8-9-10-8-----8---------||-8-11--------11-----------11----11-10-8-|
|------------------------||------------------------||-5--5--------8--8-------||-5--5--5--5--8--8--8--8-| x8|-3--3--5--5--6--6--8--8-||-------3--3--------6--6-|
"Yea and now you got their attention you know..." Bridge
|----------||----------||----------||-5----5-5-||-5----5-5-||-3----3-3-|
"But it's not for me, no I disagree" Chorus
|------------------------------------------------------||------------------------------------------------------||-5--5--9--9--------------10--10--10--10---------------||-5--5--9--9--7--7--7--7--10--10--10--10--10--10--5--5-||-3--3--7--7--7--7--7--7--8---8---8---8---10--10--5--5-||-------------5--5--5--5------------------8---8---3--3-|
"Cuz I heard you before when you said..."
|----------------------------------------------------||----------------------------------------------------||-5--5--9--9--14--14--14--14-------------------------||-5--5--9--9--12--12--14--14--3--3--3--3--5--5--5--5-||-3--3--7--7--12--12--12--12--3--3--3--3--5--5--5--5-||-----------------------------1--1--1--1--3--3--3--3-|
"You dress up for Armageddon..." Second Bridge
|--------------------------------------------||--------------------------------------------||--------------------------------------------||--------------6--6-5------------------------||-3--5--6--5-3----------3--5--6--5-3---------||------------------------------------4--4-3--|
"Who's that man with the microphone?..." Chorus
|------------------------------------------------------||------------------------------------------------------||-5--5--9--9--------------10--10--10--10---------------||-5--5--9--9--7--7--7--7--10--10--10--10--10--10--5--5-||-3--3--7--7--7--7--7--7--8---8---8---8---10--10--5--5-||-------------5--5--5--5------------------8---8---3--3-|
"Cuz I heard you before when you said..."
|----------------------------------------------------||----------------------------------------------------||-5--5--9--9--14--14--14--14-------------------------||-5--5--9--9--12--12--14--14--3--3--3--3--5--5--5--5-||-3--3--7--7--12--12--12--12--3--3--3--3--5--5--5--5-||-----------------------------1--1--1--1--3--3--3--3-|
"You dress up for Armageddon..." Second Chorus Chorus
|------------------------------------------------------||------------------------------------------------------||-5--5--9--9--------------10--10--10--10---------------||-5--5--9--9--7--7--7--7--10--10--10--10--10--10--5--5-||-3--3--7--7--7--7--7--7--8---8---8---8---10--10--5--5-||-------------5--5--5--5------------------8---8---3--3-|
"You feel tortured and filled with regret..."
|-------------------------------------------------------------------||-------------------------------------------------------------------||-5--5--9--9--14--14--14--14----------------------------------------||-5--5--9--9--12--12--14--14--3-3-3-3-3-3-3-3-3-3-3-3-5-5-5-5-5-5-5-||-3--3--7--7--12--12--12--12--3-3-3-3-3-3-3-3-3-3-3-3-5-5-5-5-5-5-5-||-----------------------------1-1-1-1-1-1-1-1-1-1-1-1-3-3-3-3-3-3-3-|
"Are they not sick of you yet?..." Outro
|---------------||---------------||---------------||-5-6-7-8-9-10--| let last chord ring...|-5-6-7-8-9-10--||-3-4-5-6-7-8---|
All right, there you have it. I'm pretty sure this is accurate, so if you guys have an questions please leave a comment, I'd appreciate it, Thanks!
Tap to rate this tab
 
# A B C D E F G H I J K L M N O P Q R S T U V W X Y Z