Hizaki Grace Project - Race Wish Live tab

Hizaki Grace Project  Race Wish (Live)
Transcribed by: b.gillam@gmail.com
Tuning Eb, Ab, Db, Gb, Bb, Eb

0:48||------------|---------------|--------------|--------|||o-----------|-----------13--|--------------|--------|||--9----10-9-|-(9)----9------|-9--9----7-7--|-(7)----|||------------|---------------|--------------|--------|||o-----------|---------------|--------------|--------|||------------|---------------|--------------|--------|
|------------|------------|---------------|-------------|||------------|------------|-12------------|------------o|||-4-5-7----9-|-7-------7--|-----7--7----5-|-5-------4---|||------------|------------|---------------|-------------|||------------|------------|---------------|------------o|||------------|------------|---------------|-------------||
|--------------|---------------|---------------|--------------||--------------|---------------|------------5--|-3-5-6--5--5--||-5--7--5------|-5--5-7-5----4-|---------------|--------------||------------3-|---------------|-5----6--------|--------------||--------------|---------------|---------7-----|--------------||--------------|---------------|---------------|--------------|
|----------------|--------------|------||-(4)--5----3-5--|-6--5---------|------||---------5------|---------4----|-5----||----------------|--------------|------||----------------|--------------|------||----------------|--------------|------|
1:21||----------------------|------------------------|||o---------------------|------------------------|||--9-10-9----9---------|------------------------|||---------12---12-10-9-|-10-9-----------9-10-12-|||o---------------------|------12-11-12----------|||----------------------|------------------------|
|----------------------|-------------------------||----------------------|---------------10-12-13--||-9-10-12-10-9---------|-------9-10-12-----------||--------------12-10-9-|-10-12-------------------||----------------------|-------------------------||----------------------|-------------------------|
|---12-10-12----12----12-|---12-10-12----12----12-||-10---------13----12----|-10---------13----12----||-----------------------|-------------------------||-----------------------|-------------------------||-----------------------|-------------------------||-----------------------|-------------------------|
|-13-12-10--------------|------------------|||---------13-12-10-9-10-|-12-10-9---------o|||-----------------------|---------10-9-----|||-----------------------|------------------|||-----------------------|-----------------o|||-----------------------|------------------||
1:41|-------------------------|----------10-12-13-12-10-----------------------||-10--10-9-10-12-10-12-13-|-10-12-13----------------13-12-10-9-10-12-10-9-||---9---------------------|-----------------------------------------------||-------------------------|-----------------------------------------------||-------------------------|-----------------------------------------------||-------------------------|-----------------------------------------------|
|--------------------------------------------|--------------------------||--------------------------------------------|--------------------------||-10-9---9-----------------------------------|--------------------------||-----12---12-10-9-10-9\-6-7-9-6h7p6h7-------|--/7-6h7p6---6------------||--------------------------------------7-----|-----------8---8-7h8p7-5--||--------------------------------------------|--------------------------|
|-----------------------------|-----------------10-13-10--------10-||-----------------------------|---------10-12-13---------12---12---||--------------------7-9-10---|10-12-13--------------------13------||--6h7p6-----6h7h9------------|------------------------------------||----------7------------------|------------------------------------||-----------------------------|------------------------------------|
|-13-10-------10-13-17-16------|----12-13-12-10-12-10--10----------------------||------12--12------------18-17-|(17)-----------------13--13-12-13-12-10-12-10-9||--------13--------------------|-----------------------------------------------||------------------------------|-----------------------------------------------||------------------------------|-----------------------------------------------||------------------------------|-----------------------------------------------|
|----------------------------------10-12-13-12-10-------------------------------||--10-10-9-10/12-10-12-13-10-12-13----------------13-12-10-9--10-12-9h10p9h10p9-||-9--9-------------------------------------------------------------------------9||-------------------------------------------------------------------------------||-------------------------------------------------------------------------------||-------------------------------------------------------------------------------|
|--------------------|-------8--7--5--7--||--------------------|-8-----------------||-(9)-4----5----7--7-|----9--------------||--------------------|-------------------||--------------------|-------------------||--------------------|-------------------|
|-10-8-7-8-/12-10-12-/15-|---------------|------------|---------------||------------------------|---------------|------------|---------------||------------------------|-9-7--7--12--9-|-7--7-------|-9-7--7----5---||------------------------|---------------|------------|---------------||------------------------|---------------|------------|---------------||------------------------|---------------|------------|---------------|
A.H.|---------------|---------------|------------------||---------------|---------------|-------13-12-10---||-4----5----(5)-|-9-7--7--12--9-|-7--7-------------||---------------|---------------|------------------||---------------|---------------|------------------||---------------|---------------|------------------|
|-------------------------||---10-12-15-13--12-13/17-||-9-----------------------||-------------------------||-------------------------||-------------------------|
2:16|----------------------------------/15-15----------||-12-12-13-12----13-13-15-13-12-----------12-13----||-------------14----------------12-----------------||--------------------------------------------------||--------------------------------------------------||--------------------------------------------------|
|------------------------------------15-15-----------||-10-12-13--/15-13-12-13-12h13p12----------12-13-15--||---------------------------------12-----------------||----------------------------------------------------||----------------------------------------------------||----------------------------------------------------|
|-------------------------------------------------------||-------------------------------------------------------||-5---5-7/9-7--/12-17-17-17-16-16-16-14-14-14-16-16-9-9-||---5---------------------------------------------------||-------------------------------------------------------||-------------------------------------------------------|
|------------------------------------------------------||------------------------------------------------------||-9/14-14-14-14-12-12-12-10-10-10-12-12-12-5-5-5-5/9-7-||------------------------------------------------------||------------------------------------------------------||------------------------------------------------------|
|------------------------------------||---------------6h8h10p8p6-----------||-7-------5h7h9------------9p7p5-----||---5h7h9----------------------------||------------------------------------||------------------------------------|
|-------------------------------------------------------||-------------------------------------------------------||-5---5-7/9-7--/12-17-17-17-16-16-16-14-14-14-16-16-9-9-||---5---------------------------------------------------||-------------------------------------------------------||-------------------------------------------------------|
|------------------------------------------------------||------------------------------------------------------||-9/14-14-14-14-12-12-12-10-10-10-12-12-12-5-5-5-5/9-7-||------------------------------------------------------||------------------------------------------------------||------------------------------------------------------|
|-----------------------------------------------------||-----------------------------------------------------||-7~~~~~~~~~~~~~<19>~~~~~<19>~~~~---------------------||-----------------------------------------------------||-----------------------------------------------------||-----------------------------------------------------|
2:47|-------------------------------------------||-----10-8----------------------------------||-/9-------7-7-7h9-/10-9-9-9-7-7-7-9-5-5-5--||-------------------------------------------||-------------------------------------------||-------------------------------------------|
|-----------------------------------------------||-----------------------------------/10-8-6h8p6-||-/10-9-9-9-7-7-7-9-5-5-5~-7/9-7-/7-------------||-----------------------------------------------||-----------------------------------------------||-----------------------------------------------|
|-----------------------------------------------------||-/13-13-12-13-12-------------------------------------||-----------------12-12-12\9-9/10-12-12-12-12-10\9----||-------------------------------------------------/10-||-----------------------------------------------------||-----------------------------------------------------|
|-------------------------------------------/15-15\--/15------------||--------------------12-12-13-/15-13-12------------\/----/12-13-15--||-----------10h12h14---------------------12-------------------------||-10h12h14----------------------------------------------------------||-------------------------------------------------------------------||-------------------------------------------------------------------|
3:09|----------------12h15-15-13-12-12-13/15-15/20-20-20\19-19\15-15--||-13----------13--------------------------------------------------||----12----12-----------------------------------------------------||-------14--------------------------------------------------------||-----------------------------------------------------------------||-----------------------------------------------------------------|
|-12-13-15----------------12h13p12----12---------------------------------||----------13-13-12-13-15----------15----15-13-12-12-13-15-13-12h13p12---||----------------------------------------------------------------------12||------------------------------------------------------------------------||------------------------------------------------------------------------||------------------------------------------------------------------------|
|------------------------------------------------------------------||------------------------------------------------------------------||-9-10-12-12-10-9-/12-12-12-12-10-9------------9h10p9----9---------||-----------------------------------12-9-10-12--------12---12-10-9-||------------------------------------------------------------------||------------------------------------------------------------------|
|----------------------------------------------------------||----------------------------------------------------------||----------------------------------------7h9h10/12-10-9----||-9-10-12-9h10p9h10p9--------------7h8h10---------------10-||---------------------10-8~-7h8h10-------------------------||----------------------------------------------------------|
|-----------------------------------------------------||-/13-12-13-/15-13-12-13-13~~~~~~~--------------------||-----------------------------------------------------||-----------------------------------------------------||-----------------------------------------------------||-----------------------------------------------------|
3:33|-10-12-13-12-10-----/19-16h19p16h19p16h19-13h16p13h16p13-||----------------13---------------------------------------||---------------------------------------------------------||---------------------------------------------------------||---------------------------------------------------------||---------------------------------------------------------|
|-12h13p12h13p12h13-12---12-10-12----12----12-----12-10-12--||---------------------------------13----12-----10-----------||----------------------9------------------------------------||-----------------------------------------------------------||-----------------------------------------------------------||-----------------------------------------------------------|
|----12----12---12-10-12----12----12-13-12-10-------------||-13----12---------------13----12-------------13-12-10-9--||-------------9-------------------------------------------||---------------------------------------------------------||---------------------------------------------------------||---------------------------------------------------------|
|---12-10-12----12----12----12-10-12----12----12---12-10-12----||------------13----12----10----------13----12---------------13-||-9----------------------------------------------9-------------||--------------------------------------------------------------||--------------------------------------------------------------||--------------------------------------------------------------|
|-12----12-13-12-10-----------------------------------||----12-------------13-12-10-9------------------------||-----------------------------------------------------||-----------------------------------------------------||-----------------------------------------------------||-----------------------------------------------------|
3:52|-----------------------------------------------------||-10-10-8h10p8\6-8-6h8p6\5-6-5h6p5-----/8-------------||----------------------------------4-5----9-----------||-----------------------------------------------------||-----------------------------------------------------||-----------------------------------------------------|
|----------------------------------7-8-/10-8-7----/15-15-13-12----||-----------------------------8-10-------------10--------------15-||-9-10-9-7-9-7---------7-9-10-------------------------------------||--------------10-9-10--------------------------------------------||-----------------------------------------------------------------||-----------------------------------------------------------------|
|------------------------------------||-12-13-15b16.5-15b16-13h15p13-12-13-||------------------------------------||------------------------------------||------------------------------------||------------------------------------|
|----------12-13-15-------------12-13-15-/20-19-15-12-13-15-13-12-----||-12-13-15----------13-12-13-15-----------------------------------12--||---------------------------------------------------------------------||---------------------------------------------------------------------||---------------------------------------------------------------------||---------------------------------------------------------------------|
|---------------15-----------------------||-15-13-12-13\/----12-/15-/17-13~~~~~----||----------------------------------------||----------------------------------------||----------------------------------------||----------------------------------------|
4:13 Outro|-------------------------------------------------------||-------------------------------------------------------||-5---5-7/9-7--/12-17-17-17-16-16-16-14-14-14-16-16-9-9-||---5---------------------------------------------------||-------------------------------------------------------||-------------------------------------------------------|
|------------------------------------------------------||------------------------------------------------------||-9/14-14-14-14-12-12-12-10-10-10-12-12-12-5-5-5-5/9-7-||------------------------------------------------------||------------------------------------------------------||------------------------------------------------------|
|----------------------------12-15-15-13-12-12-13-15-20-20-20-\19-19\15-15-||-----------------13-------13----------------------------------------------||-/14-12-10h12p10----12--12------------------------------------------------||----------------------14--------------------------------------------------||--------------------------------------------------------------------------||--------------------------------------------------------------------------|
|-15-15-15-12-13-15-------------------12h13p12----12--------------------||-------------------13-13-13-12-13-15----------15----15-13-12-13-15-13--||-----------------------------------------------------------------------||-----------------------------------------------------------------------||-----------------------------------------------------------------------||-----------------------------------------------------------------------|
|--------------------------------------------------------------------||-12h13p12---------------------------------------/13-13-13-13-13-13--||----------12-\9-10-12-12-10-9-10~~~-9h10p9--------------------------||-------------------------------------------12-9---------------------||--------------------------------------------------------------------||--------------------------------------------------------------------|
|----------12h15p12----------12h15p12----------12h15p12----------12-15-||-------13----------13----13----------13----13----------13----13-------||----12----------------12----------------12----------------12----------||-15-------------------------------------------------------------------||----------------------------------------------------------------------||----------------------------------------------------------------------|
|-/20-20-20-20-20-20-20-20~~~~~~~~~~~---||---------------------------------------||---------------------------------------||---------------------------------------||---------------------------------------||---------------------------------------|END
Hope you enjoyed the tab! Please contact me with any errors/alterations that might improve this tab. It sounds pretty good to me, but I am happy to take criticism!
Tap to rate this tab
 
# A B C D E F G H I J K L M N O P Q R S T U V W X Y Z