Holdsworth Allan - City Nights tab

#----------------------------------PLEASE NOTE--------------------------------#
#This file is the author's own work and represents their interpretation of the#
#song. You may only use this file for private study, scholarship, or research.#
#-----------------------------------------------------------------------------#

Date: Wed, 18 Mar 1998 18:23:49 -0800
!From: Judy Letostak 
Subject: TAB:Alan Holdsworth - City Nights

Allan Holdsworth - City Nights
http://www.fortunecity.com/tinpan/agnetha/59/index.html
or (San Diego, CA)
Metal Edge (619)423-4970 24/7 Guitar/Bass/Drum tab, NPD,


This is an instrumental, there are NO lyrics.

This is a challenge for even the experienced guitarist.  Warmup
thoroughly before tackling this piece.  There's TONS of legato
phrasing and lots of wide stretching.  Allan has the smoothest
lead style I've ever heard.  His solo stuff is awesome, so was
his band UK.  Check him out!

------------------------------------------------------------|------------------------------------------------------------|---5/7--------------------7---------------------------------|-----------7-----5------------7-----5-------8---------------|-------------------------------------------------8-----6----|------------------------------------------------------------|
------------------------------------------------------------|-------------------------------------------------19---------|---------------------------------------------16------16-----|----6/8----------------------------------14--------------14-|--------------8-------6-----0w/bar---12---------------------|------------------------------------------------------------|
-------------------14h15p14----------------------------------|----------------15----------15----------------------------19-|-------------16----------------16----------------------17----|----------14----------------------14-------12h16p14h17-------|-15p12h15----------------------------15p12-------------------|-------------------------------------------------------------|
-17h22p17--------------------17h21/24p21w/bar---------------|----------17--------------17-----------------------15-------|-----------------------17--------------------------------14-|--------------17-14h17--------------------------------------|------------------------------------------------------------|------------------------------------------------------------|
------------------------------------------------------------|-------------15---------------------------------------------|----12-----------14----12------15w/bar----------------------|------------------------------------------15p13w/bar--------|------------------------------------------------------------|------------------------------------------------------------|
------------------------------------------------------------|--------------------------12/14-----------------------------|------------------------------------------------------------|---15-------------------------------------------11h12~~~----|-------15-----13--14-----------------12---------------------|------------------------------------------------------------|
---------13--------------------10/12~~~---------------------|------------------------------------------------------------|---14-----------14----12\10-----------------12\10p9--9------|------------------------------------------------------------|------------------------------------------------------------|------------------------------------------------------------|
-------------------------------------------------------------|-------------------------------------------------------------|---------11~~~---/12-~~~---10p8------------------------------|---11------------------------------12p10p8-----10~~~\--12----|w/bar-------------------------------------------------------------|-------------------------------------------------------------|
-------------------------------------------------------------|-------------------------------------------------------------|-----------------------------------------------------------9-|---12p10p9---------------------------------------------------|-----------------12p10-----------10h12------------10h12------|----------------------------10-------------10----------------|
------------------------------------------------------------|------------------------------------------------------------|-12----11---10-----9----------------------------------------|------------------------12p11p10p9\8------------------------|--------------------------------------------11p9p8----------|-----------------------------------------------------11-----|
C'mon everybody STRETCH!!!!!------------------------------------------------------------|------------------------------------------------------------|------------------------------------------9-14p9------9-----|----------------------------------9---14----------14--------|--13----------10-------11p9---14----------------------------|-------13p11------12----------------------------------------|
-------------------------------------------------------------|-------------------------------------------------------------|---------9-------------11--------------9------------------12-|-14p9-14---14-10/11-16----16-11\9--14-----14--9/12---17------|-------------------------------------------------------------|-------------------------------------------------------------|
------------------------------------------------------------|------------------------------------------------------------|---------------10---------------12---------------10---------|-17p12\10--15------15p10/12-17------17p12\10-15-------------|------------------------------------------------------------|------------------------------------------------------------|
------------------------------------------------------------|------------------------------------------------10h13h15----|------------------10------------------10h13h15--------------|--15p12p10h12-15------15p12p10h12h15------------------------|------------------------------------------------------------|------------------------------------------------------------|
-10h13h15p13p10h11h12h13p12p11p10---------------12----------|-----------------------------------14p13p11p10------13--10--|------------------------------------------------------------|------------------------------------------------------------|------------------------------------------------------------|------------------------------------------------------------|
-10---------------------------------------------------------|-----13--10b(12)----------------------10h15p10~~~~----------|------------------12p10------------------------------9~~~~--|-------------------------12--10h12--------------------------|------------------------------------------------------------|------------------------------------------------------------|
------------------------------------------------------------|------------------------------------------------------------|----------------------------------------10-12-13/17p16------|-12----10b(12)--rb10p8---------------10---------------------|-------------------------13p11p10-11------------------------|------------------------------------------------------------|
-----------------------------------13h17p14h15------12h15p13-|-----------------------------13h15--------------12-----------|-16/19--14h17---------14h17----------------------------------|---------------14h17-----------------------------------------|-------------------------------------------------------------|-------------------------------------------------------------|
--10h13p12-----8h12p10p8----------10-------------------10---|------------8-----------------------------------------------|--------------------------12/14-------14p12----10h12--------|------------------------------------------------------------|------------------------------------------------------------|------------------------------------------------------------|
---------10---------10------------10---------10---------10--|------------------------------------------------------------|--12h14------12h14------12h14/15------15\14------14p12------|------------------------------------------------------------|------------------------------------------------------------|------------------------------------------------------------|
------------------------------------------------------------|------------------------------------------------------------|-12p10p9h10h12p10p9-----9-----------------------------------|---------------------12----10h12p10p8------8----------------|---------------------------------------12-----12p10p8h10h12-|------------------------------------------------------------|
----------------------------------------------9h14p9--------|----------------------------------------9h11----------9h11--|---------------------------10h13p11h13----------------------|---------------9h13p11h13-----------------------------------|--13-11--9h11-----------------------------------------------|------------------------------------------------------------|
-------8h11p10--------11p9---------12p9---------------------|--9-------------9h11--------9--12--------12p9---------------|-----------------------------------------------11p9----9h11-|------------------------------------------------------------|------------------------------------------------------------|------------------------------------------------------------|
--------------------------------9/12------------------------|----------------------------12------------------------------|------------9h11------9h11----------------------------------|-9h11---11--------11-------------------------15-------17----|---------------------------------------15h17----15h17-------|------------------------------------------------------------|
-----------------------------------15/17h22p17w/bar/20------|--------18--------------------------------------------------|-15h17-----15h17--------------------------------------------|-----------------17-----------15----------------------------|--------------------17p15h17--------------------------------|------------------------------------------------------------|
-20p15p13-12h15-10h13p12p10-------10------------------------|----------------------------13p10----13p10------------------|-------------------------------------------12b(13)-12p10----|------------------------------------------------------------|------------------------------------------------------------|------------------------------------------------------------|
------------------10h14-------------------------------------|------------------------10h14-------------------------------|-----------10h12---------------9h14p11p9--------9-----------|-12p10h12---------------------------------12p9----9h14p12p9-|------------------------------------------------------------|------------------------------------------------------------|
---------------------------------------8--------------------|--------------------------8h10h11p10p8---11p10--------------|---------------------7h10----------------------12~~~--------|------------7h10p7h8----------------------------------------|-12-----7h8-------------------------------------------------|------------------------------------------------------------|
==w/bar======-----------------8h10h11p10p8---13p11p10p8------------------|------------8h11---------------------------11----10/w/bar---|-10\9\8p7h8-------------------------------------------------|------------------------------------------------------------|------------------------------------------------------------|------------------------------------------------------------|
------------------------------------------------------------|-h12------------------------------15p14-------13------------|------12-----------------------14-------14\13----15p14p13---|------------12~~~~-------14h17------------------------------|------------------------------------------------------------|------------------------------------------------------------|
---------------------------------------------15p13----------|-13---------------------------------------15--------15p14---|----14h16p14p12------14p13p12h14----12h15-------------------|-----------------16--------------15-------------------------|------------------------------------------------------------|------------------------------------------------------------|
-13--------12-----------------------------------------------|-----16p15----12-17p15----------14h15p14--------------------|-----------------------17b(18)-----------17p16p15p14--------|------------------------------------------------------------|------------------------------------------------------------|------------------------------------------------------------|
---------------------------16h18h19p18p16-------16----------|---------------------14h16----------------19p16----19p16----|--------------15h16-----------------------------------------|--17p16p15h17-----------------------------------------------|------------------------------------------------------------|------------------------------------------------------------|
-------------------------------------------------------------|-----------------------------------------------------19b(21--|-18h20p18p16----18p16-18p16-----------------------16---------|-------------18-------------18p16-----------16h18------------|----------------------------------18--16h18------------------|-------------------------------------------------------------|
-17p14-16p12-------------------------------------------------|-------------14----------------------------------------------|----------------14p13h16-12h15-14p12p11----------------------|----------------------------------------14p12p10-------------|-------------------------------------------------14p12p10----|w/bar-------------------------------------------------------------|
------------------------------------------------------------|------------------------------------------------------------|-----7--------9----------7---------------------6/7----------|-----7--------9-------------7-------5~-----------------7----|------------------------------------------------------------|------------------------------------------------------------|
------------------------------------------------------------|------------------------------------------------------------|------------------------------------------------------------|---5~~~--------6/8--------------------8---------------------|----------------------8-----6~------------8------6------4---|------------------------------------------------------------|
Typed up using WordPad (Cencorship is Unconstitutional support free speech!) Leeched from Guitar World May 1989 (Dave Whitehill) Metal Edge BBS (619)423-4970 (San Diego, CA USA) Over 15,000 Guitar Tabs, Bass tabs, Drum tabs, lessons MP3s, 0-10 day Warez Running Iniquity v.a26r4, 4.6Gigs, 28.8 Warlock WHQ, RioT Member and Distro... =========================================================== h = hammeron ps = pick scrape p = pulloff % = repeat phrase ~ = vibrato letostak@ix.netcom.com b = bend + natural harmonic /\ = Slide tr = trill * = Artificial Harmonic x = ghost note t = tap note w/right hand w/bar = with bar ===========================================================
Tap to rate this tab
 
# A B C D E F G H I J K L M N O P Q R S T U V W X Y Z