Holly Buddy - It Doesnt Matter Anymore tab

It Doesn't Matter Anymore
Artist:  Eva Cassidy
Album:  Imagine
Capo:  4

This is an easy, kind of relaxed song that is a lot of fun to play.  It only uses a few chords (by Eva 
standards) and there are no really fast changes.  The picking pattern is pretty easy to remember, and you can 
the song relatively fast.

Intro:

-----------------------------------------------------------------------------------------------------|-----------0--------------0---------0-----------------------------0----------0---------0-------------|---------0--------------0---------0---------0------0-----------0----------0---------0-------0-----0--|-----------------0h2-----------4---------2------0-------------------0h2--------4--------2-----0------|-----------------------------------------------------------------------------------------------------|---3--------------------------------------------------------3----------------------------------------|
-----------------------------------------------------------------------------------------------------|-----------0--------------0---------0-----------------------------0----------0---------0-------------|---------0--------------0---------0---------0------0-----------0----------0---------0-------0-----0--|-----------------0h2-----------4---------2------0-------------------0h2--------4--------2-----0------|-----------------------------------------------------------------------------------------------------|---3--------------------------------------------------------3----------------------------------------|Verse one:
-------------------------------------------------------------|-----------0--------------0---------0------------------------|---------0--------------0---------0---------0------0---------|-----------------0h2-----------4---------2------0------------|-------------------------------------------------------------|---3---------------------------------------------------------| There you go and ba by
-------------------------------------------------------------|-----------0--------------0---------0------------------------|---------0--------------0---------0--------------------------|-----------------0h2-----------4---------2p0-----------------|---------------------------------------------------2h3-------|---3---------------------------------------------------------| here am I Well, you
---------------2---------------------------2------------------------2-----------------------|--------3------------3---------3----------------3--------3---------------3------3-----------|-----2------------2----------2---------------2---------2--------------2-------2-------------|--0------------------------0--------------------------0----------------------0--------------|-----------0---------------------------0------------------------0---------------------------|-----------------------------------------------------------------------------------------2--|
left me here so I could sit and cry-------------------------------------------------------------|-----------0--------------0---------0------------------------|---------0--------------0---------0---------0------0---------|-----------------0h2-----------4---------2------0------------|-------------------------------------------------------------|---3---------------------------------------------------------| Go lly gee what have you
-------------------------------------------------------------|-----------0--------------0---------0------------------------|---------0--------------0---------0--------------------------|-----------------0h2-----------4---------2p0-----------------|---------------------------------------------------2h3-------|---3---------------------------------------------------------| do - one to me Well, I
---------------2----------------------------------------|--------3------------3---------3------------------------|-----2------------2----------2--------------0-----------|--0------------------------0---------------0------------|-----------0--------------------------------------------|--------------------------------------2-----------------|guess it doesn't matter any . . .
Ending of verse one:
-----------------------------------------------------------------------------------------------------|-----------0--------------0---------0-----------------------------0----------0---------0-------------|---------0--------------0---------0---------0------0-----------0----------0---------0-------0-----0--|-----------------0h2-----------4---------2------0-------------------0h2--------4--------2-----0------|-----------------------------------------------------------------------------------------------------|---3--------------------------------------------------------3----------------------------------------| more . . .
Ending of verse two and three/segue into bridge:-------------------------------------------------------------------------------------------------------|-----------0--------------0--------0----------------------------0--------------0-----------------------|---------0--------------0--------0----------0-----0----------0--------------0--------------------------|-----------------0h2----------4----------2-----0------------------0h2----------------0-------0---------|-------------------------------------------------------------------------------------------------------|---3------------------------------------------------------3----------------3----------3------2---------| more . . .
Bridge:-----------------------------------------------------------------------------------------------------|----------------0-----------------------0----------------------0-------------------------------------|--------0------------0--------0--------------0---------0-----------0------------0--------------------|------2-----------2---------2-------------2----------2----------2-------------2---------2---------0--|-------------2---------------------2-----------------------2-----------------------------------------|---0----------------------0------------------------0------------------------0--------0----------2----| There ain't no use in me a- cry - y - in' cause I've
-----------------------------------------------------------------------------------------------------|-----------0--------------0---------0-----------------------------0----------0---------0-------------|---------0--------------0---------0---------0------0-----------0----------0---------0-------0-----0--|-----------------0h2-----------4---------2------0-------------------0h2--------4--------2-----0------|-----------------------------------------------------------------------------------------------------|---3--------------------------------------------------------3----------------------------------------| done ev'ry thing and now I'm sick of try in' I've
------------------------------------------------------------------------------------------------|---------------1---------0-------------0------0h1--------------1------0-------------------------|-------2-----------------------2--------------------------2----------------------2------0-------|-----2------------2---------2-------------2------------2------------2--------2---------------2--|---0---------------------0---------------------0------------------------0------------------2----|-----------0------------------------0-------------------------0----------------------0----------| thrown away my nights wasted all my days over
--------------2------------------------0------------------------0--------------------------------|------3-----------3-----------3------------3-----------3------------3----------------------------|----2-----------2----------2-------------2-----------2-----------2-----------------2-------------|--0-------0-----------------------------------------------------------------------0-----------0--|-------------------------3---------3--------------2---------2------------------------------------|-----------------------------------------------------------------------------2-------------2-----| yo o o o o o ou . . .
Ending of verse four:
-------------------------------------------------------------|-----------0--------------0---------0------------------------|---------0--------------0---------0--------------------------|-----------------0h2-----------4---------2p0-----------------|---------------------------------------------------2h3-------|---3---------------------------------------------------------|we'll say we're through
---------------2----------------------------------------|--------3------------3---------3------------------------|-----2------------2----------2--------------0-----------|--0------------------------0---------------0------------|-----------0--------------------------------------------|--------------------------------------2-----------------|you won't matter any --
-------------------------------------------------------------|-----------0--------------0---------0------------------------|---------0--------------0---------0--------------------------|-----------------0h2-----------4---------2p0-----------------|---------------------------------------------------2h3-------|---3---------------------------------------------------------|more . . .
---------------2----------------------------------------|--------3------------3---------3------------------------|-----2------------2----------2--------------0-----------|--0------------------------0---------------0------------|-----------0--------------------------------------------|--------------------------------------2-----------------| you won't matter any--
-------------------------------------------------------------|-----------0--------------0---------0------------------------|---------0--------------0---------0--------------------------|-----------------0h2-----------4---------2p0-----------------|---------------------------------------------------2h3-------|---3---------------------------------------------------------|more . . .
---------------2---------------------------2------------------------2-----------------------|--------3------------3---------3----------------3--------3---------------3------3-----------|-----2------------2----------2---------------2---------2--------------2-------2-------------|--0------------------------0--------------------------0----------------------0--------------|-----------0---------------------------0------------------------0---------------------------|-----------------------------------------------------------------------------------------2--| you won't mat-- er any
-----------------------------------------------------------------------------------------------------|-----------0--------------0---------0-----------------------------0----------0---------0-------------|---------0--------------0---------0---------0------0-----------0----------0---------0-------0-----0--|-----------------0h2-----------4---------2------0-------------------0h2--------4--------2-----0------|-----------------------------------------------------------------------------------------------------|---3--------------------------------------------------------3----------------------------------------|more . . .
-------------------------------------------------------------------3-----------------|-----------0--------------0---------0---------------------------0--------------------|---------0--------------0---------0---------0------0----------0----------------------|-----------------0h2-----------4---------2------0-----------0------------------------|--------------------------------------------------------------2----------------------|---3--------------------------------------------------------3------------------------|
Order of Parts: Intro Verse one Ending of verse one Verse two (played like verse one) Ending of verse two and three/ segue into bridge Bridge Verse three (played like verse one) Ending of verse two and three/ segue into bridge Bridge Verse Four (played like verse one) Ending of verse four
Tap to rate this tab
 
# A B C D E F G H I J K L M N O P Q R S T U V W X Y Z