Hoobastank - Just One tab

Ite, i was lookin for the correct tab everywre n i noticed that people had tabed
different bits right n other bits wrong so i put all the write bits 2gether n got
this, im 99.9% thts is correct, enjoy

Feel free to check out my other tabs-millencolin greener grass, millencolin leona

great song----------------------------------------------------------------|----------------------------------------------------------------|------6---4-------8---9---4-4-----8---9---4-4-----6---11--8-8\--|------x---x-------x---x---x-x-----x---x---x-x-----x---x---x-x---|4-4-4-4---2---7-7-6---7---2-2-0-0-6---7---2-2-2-2-4---9---6-6\--|----------------------------------------------------------------|
----------------------------------------------------------------|----------------------------------------------------------------|------6---4-------8---9---4-4-----8---9---4-4-----6---11--8-8\--|------x---x-------x---x---x-x-----x---x---x-x-----x---x---x-x---|4-4-4-4---2---7-7-6---7---2-2-0-0-6---7---2-2-2-2-4---9---6-6\--|----------------------------------------------------------------|
-----------------------------------------|-----------------------------------------|-----------------------------------------|---6-6-666---------------------4-4-444---|---4-4-444--7-7-7777--2-2-222--2-2-222---|------------5-5-5555--0-0-000------------|
---------------------------------------------|---------------------------------------------|---------------------------------------------|---6-6-666---------------------------44444---|---4-4-444--7-7-7777--4-4-444--2-22--22222---|------------5-5-5555--2-2-222--0-00----------|
Verse X4----------------------------------------------------------------|----------------------------------------------------------------|------6---4-------8---9---4-4-----8---9---4-4-----6---11--8-8\--|------x---x-------x---x---x-x-----x---x---x-x-----x---x---x-x---|4-4-4-4---2---7-7-6---7---2-2-0-0-6---7---2-2-2-2-4---9---6-6\--|----------------------------------------------------------------|
Chorus-----------------------------------------|-----------------------------------------|-----------------------------------------|---6-6-666---------------------4-4-444---|---4-4-444--7-7-7777--2-2-222--2-2-222---|------------5-5-5555--0-0-000------------|
---------------------------------------------|---------------------------------------------|---------------------------------------------|---6-6-666---------------------------44444---|---4-4-444--7-7-7777--4-4-444--2-22--22222---|------------5-5-5555--2-2-222--0-00----------|
--------------------------------------------------------------|--------------------------------------------------------------|-------------------------------------------------2-22---------|---6-6-666---------------------4-4-444--7-7-777--0-00---------|---4-4-444--7-7-7777--2-2-222--2-2-222--5-5-555--------2222---|------------5-5-5555--0-0-000--------------------------0000---|
Verse X4----------------------------------------------------------------|----------------------------------------------------------------|------6---4-------8---9---4-4-----8---9---4-4-----6---11--8-8\--|------x---x-------x---x---x-x-----x---x---x-x-----x---x---x-x---|4-4-4-4---2---7-7-6---7---2-2-0-0-6---7---2-2-2-2-4---9---6-6\--|----------------------------------------------------------------|
XXXX----------|XXXX----------|XXXX----------|XXXX----------|XXXX----------|XXXX----------|
Chorus-----------------------------------------|-----------------------------------------|-----------------------------------------|---6-6-666---------------------4-4-444---|---4-4-444--7-7-7777--2-2-222--2-2-222---|------------5-5-5555--0-0-000------------|
---------------------------------------------|---------------------------------------------|---------------------------------------------|---6-6-666---------------------------44444---|---4-4-444--7-7-7777--4-4-444--2-22--22222---|------------5-5-5555--2-2-222--0-00----------|
--------------------------------------------------------------|--------------------------------------------------------------|-------------------------------------------------2-22---------|---6-6-666---------------------4-4-444--7-7-777--0-00---------|---4-4-444--7-7-7777--2-2-222--2-2-222--5-5-555--------2222---|------------5-5-5555--0-0-000--------------------------0000---|
-------------------------|-------------------------|-------------------------|-------------------------|---44444444--555--7777---|---22222222--333--5555---|
Weird Bit X2--------------------------------|--------------------------------|--------------------------------|--------------------------------|050--55050--55050--5505505/66---|030--33030--33030--3303303/44---|
-----------------------------------------------------------------------------|-----------------------------------------------------------------------------|-----------------------------------------------------------------------------|-----------------------------------------------------------------------------|---77777777--66666666--99999999--11-11-11-11-11-11-11-11--77777777--66666666-|---55555555--44444444--77777777--9--9--9--9--9--9--9--9---55555555--44444444-|
--------------------|--------------------|--------------------|--------------------|--050--5505505/66---|--030--3303303/44---|
-----------------------------------------------------------------------------|-----------------------------------------------------------------------------|-----------------------------------------------------------------------------|-----------------------------------------------------------------------------|---77777777--66666666--99999999--11-11-11-11-11-11-11-11--77777777--66666666-|---55555555--44444444--77777777--9--9--9--9--9--9--9--9---55555555--44444444-|
------------------------------|------------------------------|------6---4-------8---9---4-4-|------x---x-------x---x---x-x-|4-4-4-4---2---7-7-6---7---2-2-|
Chorus-----------------------------------------|-----------------------------------------|-----------------------------------------|---6-6-666---------------------4-4-444---|---4-4-444--7-7-7777--2-2-222--2-2-222---|------------5-5-5555--0-0-000------------|
---------------------------------------------|---------------------------------------------|---------------------------------------------|---6-6-666---------------------------44444---|---4-4-444--7-7-7777--4-4-444--2-22--22222---|------------5-5-5555--2-2-222--0-00----------|
--------------------------------------------------------------|--------------------------------------------------------------|-------------------------------------------------2-22---------|---6-6-666---------------------4-4-444--7-7-777--0-00---------|---4-4-444--7-7-7777--2-2-222--2-2-222--5-5-555--------2222---|------------5-5-5555--0-0-000--------------------------0000---|
X2-----------------------------------------------------------------------------|-----------------------------------------------------------------------------|-----------------------------------------------------------------------------|-----------------------------------------------------------------------------|---77777777--66666666--99999999--11-11-11-11-11-11-11-11--77777777--66666666-|---55555555--44444444--77777777--9--9--9--9--9--9--9--9---55555555--44444444-|
END WITH THIS---------------------------|---------------------------|---------------------------|---------------------------|---050-55050-55050-55050---|---030-33030-33030-33030---|
!-!-!-!-!(6)G٥T(6)!-!-!-!-!*DENiED*
Tap to rate this tab
 
# A B C D E F G H I J K L M N O P Q R S T U V W X Y Z