Hootie And The Blowfish - Running From An Angel tab

Band: Hootie & the Blowfish
Song: Running From An Angel
CD:   Cracked Rearview Mirror
Year: 2007
Tuning: Standard

(There are three guitars in this song. One acoustic which does the majority
of the playing and one clean electric that plays the lead with it. A third
electric comes in distorted to play the chorus with the first two. The parts
that use the muted string (x) you mute with your left hand and still strum.)

________________________
                        |
x  = muted string       |
/  = slide              |
________________________|

Intro:|-----------------|-------------------|-----------------|------------------||-----------------|-------------------|-----------------|-9----------------||-------9---------|-------------------|-------9---------|-9----------------||---9-9---11------|-9-11-11-9---------|---9-9---11------|---11-9-----------||/11--------------|-----------11--9---|/11--------------|--------11-9---7--||-----------------|-------------------|-----------------|------------------|
Pre verse: (drums and bass enter)|-----------------|-------------------|-----------------|------------------||-----------------|-------------------|-----------------|-9----------------||-------9---------|-------------------|-------9---------|-9----------------||---9-9---11------|-9-11-11-9---------|---9-9---11------|---11-9-----------| |/11--------------|-----------11--9---|/11--------------|--------11-9---7--||-----------------|-------------------|-----------------|------------------|
| |
|-----------------|-------------------|-----------------|-------------------||-----------------|-------------------|-----------------|-------------------||---9-----6-6-----|---9-----6-6--4----|---9-----6-6-----|---9-----6-6--4----||---9-----6-6-----|---9-----6-6--4----|---9-----6-6-----|---9-----6-6--4----||-7-7--x--4-4-----|-7-7--x--4-4--2----|-7-7--x--4-4-----|-7-7--x--4-4--2----||-----------------|-------------------|-----------------|-------------------|
|-----------------|-------------------|-----------------|------------------||-----------------|-------------------|-----------------|-9----------------||-------9---------|-------------------|-------9---------|-9----------------||---9-9---11------|-9-11-11-9---------|---9-9---11------|---11-9-----------| |/11--------------|-----------11--9---|/11--------------|--------11-9---7--||-----------------|-------------------|-----------------|------------------|
| |
|-----------------|-------------------|-----------------|-------------------||-----------------|-------------------|-----------------|-------------------||---9-----6-6-----|---9-----6-6--4----|---9-----6-6-----|---9-----6-6--4----||---9-----6-6-----|---9-----6-6--4----|---9-----6-6-----|---9-----6-6--4----||-7-7--x--4-4-----|-7-7--x--4-4--2----|-7-7--x--4-4-----|-7-7--x--4-4--2----||-----------------|-------------------|-----------------|-------------------|
Verse:|---------------|-------------------||---------------|-------------------||---9-----6-6---|---9-----6-6--4----||---9-----6-6---|---9-----6-6--4----||-7-7--x--4-4---|-7-7--x--4-4--2----||---------------|-------------------|
|---------------|-------------------||---------------|-------------------||---9-----6-6---|---9-----6-6--4----||---9-----6-6---|---9-----6-6--4----||-7-7--x--4-4---|-7-7--x--4-4--2----||---------------|-------------------|
| |
|---------------|-------------------||---------------|--9----------------||---------------|--9----------------||---------------|----11-9-----------||---------------|---------11-9---7--||---------------|-------------------|
|---------------|-------------------||---------------|-------------------||---9-----6-6---|---9-----6-6--4----||---9-----6-6---|---9-----6-6--4----||-7-7--x--4-4---|-7-7--x--4-4--2----||---------------|-------------------|
|---------------|-------------------||---------------|-------------------||---9-----6-6---|---9-----6-6--4----||---9-----6-6---|---9-----6-6--4----||-7-7--x--4-4---|-7-7--x--4-4--2----||---------------|-------------------|
| |
|---------------|-------------------||---------------|--9----------------||---------------|--9----------------||---------------|----11-9-----------||---------------|---------11-9---7--||---------------|-------------------|
Pre verse:|-----------------|-------------------|-----------------|------------------||-----------------|-------------------|-----------------|-9----------------||-------9---------|-------------------|-------9---------|-9----------------||---9-9---11------|-9-11-11-9---------|---9-9---11------|---11-9-----------| |/11--------------|-----------11--9---|/11--------------|--------11-9---7--||-----------------|-------------------|-----------------|------------------|
| |
|-----------------|-------------------|-----------------|-------------------||-----------------|-------------------|-----------------|-------------------||---9-----6-6-----|---9-----6-6--4----|---9-----6-6-----|---9-----6-6--4----||---9-----6-6-----|---9-----6-6--4----|---9-----6-6-----|---9-----6-6--4----||-7-7--x--4-4-----|-7-7--x--4-4--2----|-7-7--x--4-4-----|-7-7--x--4-4--2----||-----------------|-------------------|-----------------|-------------------|
Verse:|---------------|-------------------||---------------|-------------------||---9-----6-6---|---9-----6-6--4----||---9-----6-6---|---9-----6-6--4----||-7-7--x--4-4---|-7-7--x--4-4--2----||---------------|-------------------|
|---------------|-------------------||---------------|-------------------||---9-----6-6---|---9-----6-6--4----||---9-----6-6---|---9-----6-6--4----||-7-7--x--4-4---|-7-7--x--4-4--2----||---------------|-------------------|
| |
|---------------|-------------------||---------------|--9----------------||---------------|--9----------------||---------------|----11-9-----------||---------------|---------11-9---7--||---------------|-------------------|
|---------------|-------------------||---------------|-------------------||---9-----6-6---|---9-----6-6--4----||---9-----6-6---|---9-----6-6--4----||-7-7--x--4-4---|-7-7--x--4-4--2----||---------------|-------------------|
|---------------|-------------------||---------------|-------------------||---9-----6-6---|---9-----6-6--4----||---9-----6-6---|---9-----6-6--4----||-7-7--x--4-4---|-7-7--x--4-4--2----||---------------|-------------------|
| |
|---------------|-------------------||---------------|--9----------------||---------------|--9----------------||---------------|----11-9-----------||---------------|---------11-9---7--||---------------|-------------------|
Chorus:|----------------------|---------------------||----------------------|---------------------||-4----44--4-6--6-6-6--|-4----44--4--66------||-4----44--4-6--6-6-6--|-4----44--4--66--77--||-2-x--22--2-4--4-4-4--|-2-x--22--2--44--77--||----------------------|-----------------55--|
Pre verse:|-----------------|-------------------|-----------------|------------------||-----------------|-------------------|-----------------|-9----------------||-------9---------|-------------------|-------9---------|-9----------------||---9-9---11------|-9-11-11-9---------|---9-9---11------|---11-9-----------| |/11--------------|-----------11--9---|/11--------------|--------11-9---7--||-----------------|-------------------|-----------------|------------------|
| |
|-----------------|-------------------|-----------------|-------------------||-----------------|-------------------|-----------------|-------------------||---9-----6-6-----|---9-----6-6--4----|---9-----6-6-----|---9-----6-6--4----||---9-----6-6-----|---9-----6-6--4----|---9-----6-6-----|---9-----6-6--4----||-7-7--x--4-4-----|-7-7--x--4-4--2----|-7-7--x--4-4-----|-7-7--x--4-4--2----||-----------------|-------------------|-----------------|-------------------|
Verse:|---------------|-------------------||---------------|-------------------||---9-----6-6---|---9-----6-6--4----||---9-----6-6---|---9-----6-6--4----||-7-7--x--4-4---|-7-7--x--4-4--2----||---------------|-------------------|
|---------------|-------------------||---------------|-------------------||---9-----6-6---|---9-----6-6--4----||---9-----6-6---|---9-----6-6--4----||-7-7--x--4-4---|-7-7--x--4-4--2----||---------------|-------------------|
| |
|---------------|-------------------||---------------|--9----------------||---------------|--9----------------||---------------|----11-9-----------||---------------|---------11-9---7--||---------------|-------------------|
|---------------|-------------------||---------------|-------------------||---9-----6-6---|---9-----6-6--4----||---9-----6-6---|---9-----6-6--4----||-7-7--x--4-4---|-7-7--x--4-4--2----||---------------|-------------------|
|---------------|-------------------||---------------|-------------------||---9-----6-6---|---9-----6-6--4----||---9-----6-6---|---9-----6-6--4----||-7-7--x--4-4---|-7-7--x--4-4--2----||---------------|-------------------|
| |
|---------------|-------------------||---------------|--9----------------||---------------|--9----------------||---------------|----11-9-----------||---------------|---------11-9---7--||---------------|-------------------|
Chorus:|----------------------|---------------------||----------------------|---------------------||-4----44--4-6--6-6-6--|-4----44--4--66------||-4----44--4-6--6-6-6--|-4----44--4--66--77--||-2-x--22--2-4--4-4-4--|-2-x--22--2--44--77--||----------------------|-----------------55--|
Pre verse:|-----------------|-------------------|-----------------|------------------||-----------------|-------------------|-----------------|-9----------------||-------9---------|-------------------|-------9---------|-9----------------||---9-9---11------|-9-11-11-9---------|---9-9---11------|---11-9-----------| |/11--------------|-----------11--9---|/11--------------|--------11-9---7--||-----------------|-------------------|-----------------|------------------|
| |
|-----------------|-------------------|-----------------|-------------------||-----------------|-------------------|-----------------|-------------------||---9-----6-6-----|---9-----6-6--4----|---9-----6-6-----|---9-----6-6--4----||---9-----6-6-----|---9-----6-6--4----|---9-----6-6-----|---9-----6-6--4----||-7-7--x--4-4-----|-7-7--x--4-4--2----|-7-7--x--4-4-----|-7-7--x--4-4--2----||-----------------|-------------------|-----------------|-------------------|
|-----------------|-------------------|-----------------|------------------||-----------------|-------------------|-----------------|-9----------------||-------9---------|-------------------|-------9---------|-9----------------||---9-9---11------|-9-11-11-9---------|---9-9---11------|---11-9-----------| |/11--------------|-----------11--9---|/11--------------|--------11-9---7--||-----------------|-------------------|-----------------|------------------|
| |
|-----------------|-------------------|-----------------|-------------------||-----------------|-------------------|-----------------|-------------------||---9-----6-6-----|---9-----6-6--4----|---9-----6-6-----|---9-----6-6--4----||---9-----6-6-----|---9-----6-6--4----|---9-----6-6-----|---9-----6-6--4----||-7-7--x--4-4-----|-7-7--x--4-4--2----|-7-7--x--4-4-----|-7-7--x--4-4--2----||-----------------|-------------------|-----------------|-------------------|
Bridge:|----------------------------|----------------------------||----------------------------|----------------------------||----------------------------|----------------------------||----------------------------|----------------------------||/11-11-11-11--9-9-9--7-7-7--|/11-11-11-11--9-9-9--7-7-7--||----------------------------|----------------------------|
|----------------------------|----------------------------||----------------------------|----------------------------||----------------------------|----------------------------||----------------------------|----------------------------||/11-11-11-11--9-9-9--7-7-7--|/11-11-11-11--9-9-9--7-7-7--||----------------------------|----------------------------|
|----------------------------|----------------------------||----------------------------|----------------------------||----------------------------|----------------------------||----------------------------|----------------------------||/11-11-11-11--9-9-9--7-7-7--|/11-11-11-11--9-9-9--7-7-7--||----------------------------|----------------------------|
Chorus:|----------------------|---------------------||----------------------|---------------------||-4----44--4-6--6-6-6--|-4----44--4--66------||-4----44--4-6--6-6-6--|-4----44--4--66--77--||-2-x--22--2-4--4-4-4--|-2-x--22--2--44--77--||----------------------|-----------------55--|
Outro:|-----------------|-------------------|-----------------|------------------||-----------------|-------------------|-----------------|-9----------------||-------9---------|-------------------|-------9---------|-9----------------||---9-9---11------|-9-11-11-9---------|---9-9---11------|---11-9-----------||/11--------------|-----------11--9---|/11--------------|--------11-9---7--||-----------------|-------------------|-----------------|------------------|
| |
|-----------------|-------------------|-----------------|-------------------||-----------------|-------------------|-----------------|-------------------||---9-----6-6-----|---9-----6-6--4----|---9-----6-6-----|---9-----6-6--4----||---9-----6-6-----|---9-----6-6--4----|---9-----6-6-----|---9-----6-6--4----||-7-7--x--4-4-----|-7-7--x--4-4--2----|-7-7--x--4-4-----|-7-7--x--4-4--2----||-----------------|-------------------|-----------------|-------------------|
|-----------------|-------------------|-----------------|------------------||-----------------|-------------------|-----------------|-9----------------||-------9---------|-------------------|-------9---------|-9----------------||---9-9---11------|-9-11-11-9---------|---9-9---11------|---11-9-----------||/11--------------|-----------11--9---|/11--------------|--------11-9---7--||-----------------|-------------------|-----------------|------------------|
| |
|-----------------|-------------------|-----------------|-------------------||-----------------|-------------------|-----------------|-------------------||---9-----6-6-----|---9-----6-6--4----|---9-----6-6-----|---9-----6-6--4----||---9-----6-6-----|---9-----6-6--4----|---9-----6-6-----|---9-----6-6--4----||-7-7--x--4-4-----|-7-7--x--4-4--2----|-7-7--x--4-4-----|-7-7--x--4-4--2----||-----------------|-------------------|-----------------|-------------------|
|-----------------|-------------------|-----------------|------------------||-----------------|-------------------|-----------------|-9----------------||-------9---------|-------------------|-------9---------|-9----------------||---9-9---11------|-9-11-11-9---------|---9-9---11------|---11-9-----------||/11--------------|-----------11--9---|/11--------------|--------11-9---7--||-----------------|-------------------|-----------------|------------------|
| |
|-----------------|-------------------|-----------------|-------------------||-----------------|-------------------|-----------------|-------------------||---9-----6-6-----|---9-----6-6--4----|---9-----6-6-----|---9-----6-6--4----||---9-----6-6-----|---9-----6-6--4----|---9-----6-6-----|---9-----6-6--4----||-7-7--x--4-4-----|-7-7--x--4-4--2----|-7-7--x--4-4-----|-7-7--x--4-4--2----||-----------------|-------------------|-----------------|-------------------|
(begin fading)|-----------------|-------------------|-----------------|------------------||-----------------|-------------------|-----------------|-9----------------||-------9---------|-------------------|-------9---------|-9----------------||---9-9---11------|-9-11-11-9---------|---9-9---11------|---11-9-----------||/11--------------|-----------11--9---|/11--------------|--------11-9---7--||-----------------|-------------------|-----------------|------------------|
| |
|-----------------|-------------------|-----------------|-------------------||-----------------|-------------------|-----------------|-------------------||---9-----6-6-----|---9-----6-6--4----|---9-----6-6-----|---9-----6-6--4----||---9-----6-6-----|---9-----6-6--4----|---9-----6-6-----|---9-----6-6--4----||-7-7--x--4-4-----|-7-7--x--4-4--2----|-7-7--x--4-4-----|-7-7--x--4-4--2----||-----------------|-------------------|-----------------|-------------------|
Tap to rate this tab
 
# A B C D E F G H I J K L M N O P Q R S T U V W X Y Z