Hopeless - Driftwood Dont Try tab

Song: Driftwood Don't Try
Band: Hopeless
Album: Dear World

Tuning: Db, Ab, Db, Gb, Bb, Eb
Or      C#, G#, C#, F#, A#, D#
Which ever floats your boat.

I remember when midnight was our highlight---------------------------------|---------------------------------|---------------------------------|---------------------------------|---------------------------------|---------------------------------|
we have forgotten eyes-------------------------------------------|-------------------------------------------|--9-9-9-9-9-9-9-9-11-11-11-11-12-12-12-12--|-------------------------------------------|--7-7-7-7-7-7-7-7-9--9--9--9--10-10-10-10--|-------------------------------------------|
that could never be rebuilt--------------------------------------------------|--------------------------------------------------|-11-11-11-11-11-11-11-11-12-12-12-12-14-14-14-14--|--------------------------------------------------|-9--9--9--9--9--9--9--9--10-10-10-10-12-12-12-12--|--------------------------------------------------|
sinister be the night guardprowling the paddock, torching the stars---------------------------------|---------------------------------|---------------------------------|-(2)-----------------------------|--2------------------------------|--2------------------------------|
we're crawling under fences-------------------------------------------|-------------------------------------------|--9-9-9-9-9-9-9-9-11-11-11-11-12-12-12-12--|-------------------------------------------|--7-7-7-7-7-7-7-7-9--9--9--9--10-10-10-10--|-------------------------------------------|
facing the difference--------------------------------------------------|--------------------------------------------------|-11-11-11-11-11-11-11-11-12-12-12-12-14-14-14-14--|--------------------------------------------------|-9--9--9--9--9--9--9--9--10-10-10-10-12-12-12-12--|--------------------------------------------------|
---------------------------------|---------------------------------|---------------------------------|-(2)-----------------------------|--2------------------------------|--2------------------------------|
-------------------------------------------|-------------------------------------------|--9-9-9-9-9-9-9-9-11-11-11-11-12-12-12-12--|-------------------------------------------|--7-7-7-7-7-7-7-7-9--9--9--9--10-10-10-10--|-------------------------------------------|
--------------------------------------------------|--------------------------------------------------|-11-11-11-11-11-11-11-11-12-12-12-12-14-14-14-14--|--------------------------------------------------|-9--9--9--9--9--9--9--9--10-10-10-10-12-12-12-12--|--------------------------------------------------|
I'm all grown up says my face---------------------------------|---------------------------------|---------------------------------|-(2)-----------------------------|--2------------------------------|--2------------------------------|
I kiss and it hurts-------------------------------------------|-------------------------------------------|--9-9-9-9-9-9-9-9-11-11-11-11-12-12-12-12--|-------------------------------------------|--7-7-7-7-7-7-7-7-9--9--9--9--10-10-10-10--|-------------------------------------------|
I hold hands and I am bored--------------------------------------------------|--------------------------------------------------|-11-11-11-11-11-11-11-11-12-12-12-12-14-14-14-14--|--------------------------------------------------|-9--9--9--9--9--9--9--9--10-10-10-10-12-12-12-12--|--------------------------------------------------|
------------------------------------------|------------------------------------------|------------------------------------------|------------------------------------------|--2---------------------------------------|--2--------2-----4---5-----10----10\4-----|
------------------------------------------|------------------------------------------|------------------------------------------|------------------------------------------|--2---------------------------------------|--2--------2-----4---5-----10----10\4-----|
I now know why I never tried to be impressive...------------------------------------------|------------------------------------------|------------------------------------------|------------------------------------------|--2---------------------------------------|--2--------2-----4---5-----10----10\4-----|
Don't keep telling me I could have been...------------------------------------------|------------------------------------------|------------------------------------------|------------------------------------------|--2---------------------------------------|--2--------2-----4---5-----10----10\4-----|
---------------------------------|------5~-------------------------|------4~-------------------------|--2-2-2~-------------------------|--2-2-2~-------------------------|--2-2-2~-------------------------|
it is a mistake to age with grace---------------------------------|---------------------------------|--------5-5-5--------------------|--2-2-2-5-5-5-5--5-5-5-5-5-5-5---|--2-2-2-3-3-3-5--5-5-5-5-5-5-5---|--2-2-2-------5--5-5-5-5-5-5-5---|
If you have the wisdom, take my place------------------------------------------|------------------------------------------|--7-7-7-7-7-7-7-7-10-10-10-10-10-10-10-10-|--7-7-7-7-7-7-7-7-10-10-10-10-10-10-10-10-|--5-5-5-5-5-5-5-5-8--8--8--8--8--8--8--8--|------------------------------------------|
The season's the reason why---------------------------------|---------------------------------|--------5-5-5--------------------|--2-2-2-5-5-5-5--5-5-5-5-5-5-5---|--2-2-2-3-3-3-5--5-5-5-5-5-5-5---|--2-2-2-------5--5-5-5-5-5-5-5---|
I'm so blue---------------------------------|---------------------------------|--7-7-7-7-7-7-7-7----------------|--7-7-7-7-7-7-7-7----------------|--5-5-5-5-5-5-5-5--2--22--2--22--|-------------------2--22--2--22--| . .. . ..
I cast a shadow,---------------------------------|---------------------------------|--------5-5-5--------------------|--2-2-2-5-5-5-5--5-5-5-5-5-5-5---|--2-2-2-3-3-3-5--5-5-5-5-5-5-5---|--2-2-2-------5--5-5-5-5-5-5-5---|
that i cannot dim------------------------------------------|------------------------------------------|--7-7-7-7-7-7-7-7-10-10-10-10-10-10-10-10-|--7-7-7-7-7-7-7-7-10-10-10-10-10-10-10-10-|--5-5-5-5-5-5-5-5-8--8--8--8--8--8--8--8--|------------------------------------------|
I miss the pieces---------------------------------|---------------------------------|--------5-5-5--------------------|--2-2-2-5-5-5-5--5-5-5-5-5-5-5---|--2-2-2-3-3-3-5--5-5-5-5-5-5-5---|--2-2-2-------5--5-5-5-5-5-5-5---|
Of you-------------------------------|-------------------------------|--7-7-7-7-7-7-7-7--3--3--3--3--|--7-7-7-7-7-7-7-7--3--3--3--3--|--5-5-5-5-5-5-5-5--1--1--1--1--|-------------------------------|
I don't want to be another fade away...-------------------------------------|-------------------------------------|-------------------------------------|--8\\2------------------12-10-15-14--|--8\\2------------------12-10-15-14--|--8\\2------------------12-10-15-14--|
-------------------------------------|-------------------------------------|-------------------------------------|--2-2-------------------12-10-15-14--|--2-2-------------------12-10-15-14--|--2-2-------------------12-10-15-14--|
-------------------------------------|-------------------------------------|-------------------------------------|--2-2-------------------12-10-15-14--|--2-2-------------------12-10-15-14--|--2-2-------------------12-10-15-14--|
-------------------------------------|----------------5x-------------------|----------------5x-------------------|----------------5x------12-10-15-14--|--2-2-2-2-2-2-2-5x------12-10-15-14--|--2-2-2-2-2-2-2---------12-10-15-14--| . . . . . . .
------------------------------------|------------------------------------|------------------------------------|-----------------------12-10-15-14--|--2-2-2-2-2-2-2-2-2-2--12-10-15-14--|--2-2-2-2-2-2-2-2-2-2--12-10-15-14--|
------------------------------------|------------------------------------|------------------------------------|-----------------------12-10-15-14--|--2-2-2-2-2-2-8-8-8-8--12-10-15-14--|--2-2-2-2-2-2-8-8-8-8--12-10-15-14--|
------------------------------------|------------------------------------|------------------------------------|-----------------------12-10-15-14--|--2-2-2-2-2-2-2-2-2-2--12-10-15-14--|--2-2-2-2-2-2-2-2-2-2--12-10-15-14--|
-------------------------------------|----------------5x-------------------|----------------5x-------------------|----------------5x------12-10-15-14--|--2-2-2-2-2-2-2-5x------12-10-15-14--|--2-2-2-2-2-2-2---------12-10-15-14--| . . . . . . .
then it's just that last bit again but change the strumming KEY: . = palm muted. 5x = natural harmonic on the 5th fret. \ = slide down. (2) = play the note if you feel obliged to. please comment/rate. I'd appreciate it. thanksss.
Tap to rate this tab
 
# A B C D E F G H I J K L M N O P Q R S T U V W X Y Z