Hopesfall - Dead In Magazines tab

Title:Dead in Magazines
Artist: Hopesfall
Tabbed by: tom (safe_in_numbers@hotmail.com)
Tuning: Drop D

not sure about the outro. corrections welcome

Guitar 1

Intro (for the end of the intro just repeat that broken chord bit a few times)

|---------------------0--------0-------||--------------------------------------||-------------------------8--------8---||-11/14---9--11/14----------9--------9-||-11/14-0-9--11/14---------------------||-11/14-0-9--11/14---------------------|
Verse
|-------------------------------------------------------------||-------------------------------------------------------------||-----8---9----8---9---11p8---8-----8---9----8---9------8---9-||-9-9--9--9-9---9---9-------9---7-7---7--7-7---7---7-7---7----||-------------------------------------------------------------||-------------------------------------------------------------|
Chorus
|----------------------------------------------------------------||----------------------------------------------------------------||-11-13x---------------------------11x---------------------------||---------6-6-6-2-2-2-2-2-2-2-2-2--------6-6-6-2-2-2-2-2-2-2-2-2-||-9--11x--6-6-6-2-2-2-2-2-2-2-2-2---9x---6-6-6-2-2-2-2-2-2-2-2-2-||---------6-6-6-2-2-2-2-2-2-2-2-2--------6-6-6-2-2-2-2-2-2-2-2-2-|
Post Chorus pt 1
|------------||------------||------------||-4-7-4-5-0~-||-4-7-4-5-0~-||-4-7-4-5-0~-|
Post Chorus pt 2
|---------------------||---------------------||---------7-7-7-6-6-6-||-4-7-4-5-------------||-4-7-4-5-5-5-5-5-5-5-| last time keep repeat the octave bit a few times.|-4-7-4-5-------------|
Post Chorus pt 3
|----------------------------------------------------------------------------||----------------------------------------------------------------------------||----------------------------------------------------------------------------||---------------------------------------------------------------------11\4/7-||-4p0-4p0-7-4p0-4p0-7-4p0-4p0-4p0-4p0-7-4p0-4p0-7-4p0-4p0-7-4p0-4p0-7-11\4/7-||-4p0-4p0-7-4p0-4p0-7-4p0-4p0-4p0-4p0-7-4p0-4p0-7-4p0-4p0-7-4p0-4p0-7-11\4/7-|
Fill *silent* Next section
|----------||----------||----------||-11-4-7-0-| last time end on the A (7)|-11-4-7-0-||-11-4-7-0-|
Outro
|--------------||------------0-||-----6------4-||---4-----4----||-4-----2------||--------------|
Outro pt 2
|--------------------------------------||----------0---------------------------||-4-4-4-4--2---9-9-9-9-4-4-4-4/6-6-6-6-||-4-4-4-4--2---9-9-9-9-4-4-4-4/6-6-6-6-||-2-2-2-2--0---7-7-7-7-2-2-2-2/4-4-4-4-||--------------------------------------|
Guitar 2 Intro
|------------||------------||-13-13-9-9--||------------| play that lots of times|-11-11-7-7--||------------|
End of intro
|---------||---------||-6--7--4-||-4--7--2-||-4--7--2-||-4--7--2-|
Verse
|------------------------------||------------------------------||------------------------------||-9-9-9----9-9--9---7-7-7--7-7-| I attempted to show the timing.|-9-9-9----9-9--9---7-7-7--7-7-||-9-9-9----9-9--9---7-7-7--7-7-|
Chorus
|-------------------------------------------------------------------------------------||-------------------------------------------------------------------------------------||-11-13x---------16-14-14-14-13-13-13-11-11-11---11x------8-8-8-8-11-11-11-11-6-6-6-6-||----------6-6-6------------------------------------6-6-6-----------------------------||-9--11x---6-6-6-14-12-12-12-11-11-11--9--9--9---9x-6-6-6-6-6-6-6-9---9--9--9-4-4-4-4-||----------6-6-6------------------------------------6-6-6-----------------------------|
Post Chorus pt 1 same as Guitar 1 Post Chorus pt 2
|-----------------------------||-----------------------------||---------9-9-9-9-11-11-11-11-||-4-7-4-5---------------------||-4-7-4-5-7-7-7-7-9--9--9---9-||-4-7-4-5---------------------|
Fill
|-----------||-----------||-9-9-9-7-6-||-----------| you can bend the last notes if you want.|-7-7-7-5-4-||-----------|
Post Chorus pt 3 same as fill. Outro
|-------------------||-------------------||-------4---------4-||----4--------4-----||-4-------2---------||-------------------|
Then change to
|-----------------||-------4-------4-||----4--------4---||-2---------------||---------2-------||-----------------|
Outro pt 2
|------------------------0--0--0-------------------------------||--------------------4---4--4---5-4---4-2----------------------||-------4--------1/2----------------4------2/1-----4-2-1-2-1---||----------6------------------------------------2------------2-||-4-7-0------0-------------------------------------------------||--------------------------------------------------------------|
Tap to rate this tab
 
# A B C D E F G H I J K L M N O P Q R S T U V W X Y Z