Horna - Hanen Synkka Myrskynsa tab

Horna - Hänen synkkä myrskynsä

     Riff 1  
                                                                
|-----------------------|-----------------------|-----------------------||-----------------------|-----------------------|-----------------------||-----------------------|-----------------------|-----------------------||-------------1---------|-------------0---------|-------------1---------||--3----3--3-------3----|--2----2--2-------2----|--3----3--3-------3----||-----------------------|-----------------------|-----------------------|
|------------------------||------------------------||-------------1--0--0----||------------------------||--2----2--2-------------||------------------------|
Riff 2
|--------------------------|--------------------------||--------------------------|--------------------------||--------------------------|--------------------------||--1--1--1--1--0--0--0--0--|--1--1--1--1--0--0--0--0--||--3--3--3--3--3--3--3--3--|--3--3--3--3--3--3--3--3--||--------------------------|--------------------------|
|--------------------------|--------------------------||--------------------------|--------------------------||--------------------------|--------------------------||--0--0--0--0--1--1--1--1--|--3--3--3--3--5--5--6--6--||--2--2--2--2--2--2--2--2--|--2--2--2--2--2--2--2--2--||--------------------------|--------------------------|
Riff 3
|--------------------------|--------------------------||--------------------------|--------------------------||--------------------------|--------------------------||--5--5--5--5--5--5--5--5--|--0--0--0--0--0--0--0--0--||--3--3--3--3--3--3--3--3--|--2--2--2--2--2--2--2--2--||--------------------------|--------------------------|
|--------------------------|--------------------------||--------------------------|--------------------------||--------------------------|--------------------------||--3--3--3--3--3--3--3--3--|--0--0--0--0--6--6--6--6--||--2--2--2--2--2--2--2--2--|--2--2--2--2--2--2--2--2--||--------------------------|--------------------------|
|--------------------------|--------------------------||--------------------------|--------------------------||--------------------------|--------------------------||--5--5--5--5--5--5--5--5--|--0--0--0--0--0--0--0--0--||--3--3--3--3--3--3--3--3--|--2--2--2--2--2--2--2--2--||--------------------------|--------------------------|
|--------------------------|--------------------------||--------------------------|--------------------------||--------------------------|--------------------------||--3--3--3--3--3--3--3--3--|--------------------------||--2--2--2--2--2--2--2--2--|--6--6--6--6--5--5--5--5--||--------------------------|--4--4--4--4--3--3--3--3--|
Riff 4
|----------------------|----------------------|-----------------------||----------------------|----------------------|-----------------------||----------------------|----------------------|-----------------------||----------------------|----------------------|--5----5----5----5--6--||--3----3----3----3----|--2----2----2----2----|--3----3----3----3--4--||----------------------|----------------------|--3----3----3----3--4--|
|----------------------||----------------------||----------------------||--6----6----6----6----||--4----4----4----4----||--4----4----4----4----|
Tap to rate this tab
 
# A B C D E F G H I J K L M N O P Q R S T U V W X Y Z