Hostage Calm - Jerry Rumspringer tab

Hostage Calm
"Jerry Rumspringer"
Self-Titled (Run For Cover)
www.myspace.com/hostagecalmct

Tabbed by request. Tuned a half step down. I tabbed "Affadavit" in standard. Whoops.

I'm not tabbing out the exact number of strums for the chords. Sorry!

Left Speaker:

Intro (acoustic strums until the rakes)

|-5~-------||-5~-------||-5~--x-x--||-7~--x-x--||-7~--x-x--||-5~--x-x--|
Verse
|-5-5-5-------------------------------------------------------||-6-6-6--------------------------------------------8----------||-5-7-5-------7-----9/7--------/9----7/9---------7---7--------||-7-7-7-----9---9------9----------10-----10---10-------3~-----||-5-5-5--10-------10-----10~-10------------10----------3~-----||------------------------------------------------------1~-----|
|-0-1-0~------------||-3-3-3~--3~-5~-6~--||-2-2-2~--4~-4~-4~--||-0-0-0~------------||-------------------||-------------------|
Pre-chorus
|-7-7---------------||-8-8-7-1-5---------||-9-9-7-2-5-12-11---||-9-9-0-0-0-0--0----| x2|-7-7---------------||-------------------|
Chorus
|-----------------------------------------------------------||-----------------------------------------------------------||---------------------7-7-7-7-7----13-13-13-13/14/13/11/13--||-3-3-3-3-3-5-5-------7-7-7-7-7-X3-X--X--X--X-/X-/X-/X-/X---||-3-3-3-3-3-5-5---3/5-5-5-5-5-5----11-11-11-11/12/11/9-/11--||-1-1-1-1-1-3-3---------------------------------------------|PM............. .........
Verse 2
|------------------||------------------||------------------||--rest------------||------------------||------------------|
Verse (I'm not tabbing out chord strums, and rhythms. sorry)
|-5-5-5-------------------------------------------------------||-6-6-6--------------------------------------------8----------||-5-7-5-------7-----9/7--------/9----7/9---------7---7--------||-7-7-7-----9---9------9----------10-----10---10-------3~-----||-5-5-5--10-------10-----10~-10------------10----------3~-----||------------------------------------------------------1~-----|
|-0-1-0~------------||-3-3-3~--3~-5~-6~--||-2-2-2~--4~-4~-4~--||-0-0-0~------------||-------------------||-------------------|
Pre-chorus
|-7-7---------------||-8-8-7-1-5---------||-9-9-7-2-5-12-11---||-9-9-0-0-0-0--0----| x2|-7-7---------------||-------------------|
Chorus
|-----------------------------------------------------------||-----------------------------------------------------------||---------------------7-7-7-7-7----13-13-13-13/14/13/11/13--||-3-3-3-3-3-5-5-------7-7-7-7-7-X3-X--X--X--X-/X-/X-/X-/X---||-3-3-3-3-3-5-5---3/5-5-5-5-5-5----11-11-11-11/12/11/9-/11--||-1-1-1-1-1-3-3---------------------------------------------|PM............. .........
Bridge
|--------------------------------------|---------------------||--------------------------------------|---------------------||-14------------13-13-9-7-------------.|---------------------||-x--x16 or so--x--x--x-x-4-4-4-4-2-7-.|-4-2-4-5-4-2-7-------||-12------------11-11-7-5-4-4-4-4-2-7--|-4-2-4-5-4-2-7-------||-------------------------2-2-2-2-0-5--|-2-0-2-3-2-0-5-------|
Interlude
|------------------------------------------------------------||--0-0-0--0-0-0--0-0--0---0-0-0--0-0-0--0-0-0--0-0-0--0-0-0--||---4-4----4-4----4--4-----4-4----4-4----4-4----4-4----4-4---||--------------------------------------------0---------------||-2------4------0--------------2------4----------------------||-----------------------0---------------------------0--------|
|----0------0------0--------0------0------0------------------||--0---0--0---0--0----0---0---0--0---0--0---0----------------||---4-4----4-4----4--4-----4-4----4-4----4-4-----------------||---------------------------------------------9-9-2-2--------||-2------4------0--------------2------4-------7-7-2-2--------||-----------------------0---------------------5-5-0-0--------|(listen to the song to get the palm muting on the A chord right)
Outro
|------------------------------------------------------------||--9-10-9-----9-10-9------9-10-9-----------------------------||--------9----------9------------9----9----------------------||---------9~---------9~------------9~-9------6-4-4-----------||-9---------11----------12------------7-7777-0-0-0-----------||------------------------------------------------------------|PM ....
|------------------------------------------------------------||------------------------------------------------------------||-9-6-6-6-8-11-11-9-8-9--9----------------------------------.||-x-x-x-x-x-x--x--x-x-x--9------6-4-4-----------------------.||-7-4-4-4-6-9--9--7-6-7--7-7777-0-0-0------------------------||------------------------------------------------------------|
|------------------------------------------------------------|||------------------------------------------------------------|||-11-11------------------------------------------------------|||-x--x-------------------------------------------------------|||-9--9-------------------------------------------------------|||------------------------------------------------------------||
Right Speaker: Intro
|-5~-------||-5~-------||-5~--x-x--||-7~--x-x--||-7~--x-x--||-5~--x-x--|
Verse
|-5-5-5------------------------------------------------------||-6-6-6-------------------------------3~-5~-6~---------------||-5-7-5-------5-5-4-4-3-3-3-----------4~-4~-4~---------------||-7-7-7-5-5-5-5-5-5-5-2-2-2-3---3-2-0------------------------||-5-5-5-5-5-5-3-3-2-2-3-3-3-3-3------------------------------||-------3-3-3---------------1--------------------------------|
Pre-chorus
|-7-7---------------||-8-8-7-1-5---------||-9-9-7-2-5-12-11---||-9-9-0-0-0-0--0----| x2|-7-7---------------||-------------------|
Chorus
|-1-3-----5-------------------------------------------------||-1-3-----6-------------------------------------------------||-2-4-----5-7-9-7-5-2~----13-13-13-13-14/14/11/13-----------||-3-5-----7------------x3-x--x--x--x--x--x--x--x------------||-3-5-3/5-5---------------11-11-11-11-12/11/9-/11-----------||-1-3-------------------------------------------------------|
Verse 2
|-5~-----------------||-5~-----------------||-5~-----------------||-7~-----------------||-7~-----------------||-5~-----------------|
Verse (I'm not tabbing out chord strums, and rhythms. sorry)
|-5-5-5------------------------------------------------------||-6-6-6-------------------------------3~-5~-6~---------------||-5-7-5-------5-5-4-4-3-3-3-----------4~-4~-4~---------------||-7-7-7-5-5-5-5-5-5-5-2-2-2-3---3-2-0------------------------||-5-5-5-5-5-5-3-3-2-2-3-3-3-3-3------------------------------||-------3-3-3---------------1--------------------------------|
Pre-chorus
|-7-7---------------||-8-8-7-1-5---------||-9-9-7-2-5-12-11---||-9-9-0-0-0-0--0----| x2|-7-7---------------||-------------------|
Chorus
|-1-3-----5-------------------------------------------------||-1-3-----6-------------------------------------------------||-2-4-----5-7-9-7-5-2~----13-13-13-13-14/14/11/13-----------||-3-5-----7------------x3-x--x--x--x--x--x--x--x------------||-3-5-3/5-5---------------11-11-11-11-12/11/9-/11-----------||-1-3-------------------------------------------------------|
Bridge
|--------------------------------------|---------------------||--------------------------------------|---------------------||-14------------13-13-9-7-------------.|---------------------||-x--x16 or so--x--x--x-x-4-4-4-4-2-7-.|-4-2-4-5-4-2-7-------||-12------------11-11-7-5-4-4-4-4-2-7--|-4-2-4-5-4-2-7-------||-------------------------2-2-2-2-0-5--|-2-0-2-3-2-0-5-------|
Interlude
|------------------------------------------------------------||--0-0-0--0-0-0--0-0--0---0-0-0--0-0-0--0-0-0--0-0-0--0-0-0--||---4-4----4-4----4--4-----4-4----4-4----4-4----4-4----4-4---||--------------------------------------------0---------------||-2------4------0--------------2------4-------------0--------||-----------------------0------------------------------------|
|----0------0------0--------0------0------0------------------||--0---0--0---0--0----0---0---0--0---0--0---0----------------||---4-4----4-4----4--4-----4-4----4-4----4-4-----------------||---------------------------------------------9-9-2-2--------||-2------4------0--------------2------4-------7-7-2-2--------||-----------------------0---------------------5-5-0-0--------|(listen to the song to get the palm muting on the A chord right)
Outro
|------------------------------------------------------------||------------------------------------------------------------||-------9--------------------------------9-------------------||-4-6-7-9------6-4-4-2/4-4-4/6-6-6/7-7-7-9------6-4-4--------| x2|-4-6-7-7-7777-0-0-0-2/4-4-4/6-6-6/7-7-7-7-7777-0-0-0--------||-2-4-5--------------0/2-2-2/4-4-4/5-5-5---------------------|PM .... ....
|------------------------------------------------------------|||------------------------------------------------------------|||------------------------------------------------------------|||-4-4--------------------------------------------------------|||-4-4--------------------------------------------------------|||-2-2--------------------------------------------------------||
Tap to rate this tab
 
# A B C D E F G H I J K L M N O P Q R S T U V W X Y Z