Hot Water Music - Driving Home tab

This is my first tab on here, only signed up because no-one had tabbed this song on
yet. It's probably fairly accurate, but I just sat down and figured it out roughly. Probably
have been tabbed in about a quarter of the space, but I decided to tab it all up in 
timing. Why? Boredom. Feel free to tell me I'm wrong, tabbing with standard laptop speakers
= not so pretty  :P

Standard Tuning EADGBE

Bass Intro – 16 bars
I know the sink and the rot got feeling "is this happening to me?"
and I know what it's like to want to end it all...

Lead With delay effect|----------------|----------------||----------------|---0------------||-----0---------0|-----0----------||---7---------7--|----------------||-5--------------|-7--------------||----------------|----------------|
|----------------|----------------||----------------|----------------||-----0----------|---0------------||---7------------|-----0----------||----------------|----------------||-7--------------|-8--------------|x4
driving home between the lines in the road I swear that I've been through this before when nothing makes much sense except for doing yourself in razor blades are hard to hold Lead
PM- - - - - - - - - - - - - - - - - - - -||----------------|-----------------------||----------------|-----------------------||--12----11------|--12----11-------------||----------12----|----------12-----------||----1010----1010|----1010----1010-------||12--------------|10---------------------|PM- - - - - - - - - - - - - - - - - - - -||----------------|-----------------------||----------------|-----------------------||--12-----11------|--12----11------------||----------12----|----------12-----------||10--1010----1010|10--1010----1010-------||----------------|-----------------------| x3PM- - - - - - - - - - - - - - - - - - - -||----------------|-----------------------||----------------|-----------------------||--12----11------|--12----11-------------||----------12----|----------12-----------||----1010----1010|----1010----1010-------||12--------------|10---------------------|
PM-S-lowly lets off to open- - - - - - - -||----------------|----------------||----------------|----------------||----------------|----------------|
|1212121212121212|1212121212121212||1010101010101010|1010101010101010||----------------|----------------|
Rhythm (Heavily Palm Muted)PM- - - - - - - - - - - - - - - - - - - -||----------------|-----------------------||----------------|-----------------------||----------------|-----------------------||-9-9-9-9-9-9-9-7|-7-7-7-7-7-7-7-7-------||-7-7-7-7-7-7-7-5|-5-5-5-5-5-5-5-5-------||----------------|-----------------------|PM- - - - - - - - - - - - - - - - - - - -||----------------|-----------------------||----------------|-----------------------||----------------|-----------------------||----------------|-5-5-5-4-4-4-4-4-------||-5-5-5-5-5-5-5-5|-3-3-3-2-2-2-2-2-------||-3-3-3-3-3-3-3-3|-----------------------|PM- - - - - - - - - - - - - - - - - - - -||----------------|-----------------------||----------------|-----------------------||----------------|-----------------------||-9-9-9-9-9-9-9-7|-7-7-7-7-7-7-7-7-------||-7-7-7-7-7-7-7-5|-5-5-5-5-5-5-5-5-------||----------------|-----------------------|PM- - - - - - - - - - - - - - - - - - - -||----------------|-----------------------||----------------|-----------------------||----------------|-----------------------||-5-5-5-5-5-5-5-5|-5-5-5-5-5-5-5-5-------||-3-3-3-3-3-3-3-3|-3-3-3-3-3-3-3-3-------||----------------|-----------------------|PM- - - - - - - - - - - - - - - - - - - -||----------------|-----------------------||----------------|-----------------------||----------------|-----------------------||-9-9-9-9-9-9-9-7|-7-7-7-7-7-7-7-7-------||-7-7-7-7-7-7-7-5|-5-5-5-5-5-5-5-5-------||----------------|-----------------------|PM- - - - - - - - - - - - - - - - - - - -||----------------|-----------------------||----------------|-----------------------||----------------|-----------------------||----------------|-5-5-5-4-4-4-4-4-------||-5-5-5-5-5-5-5-5|-3-3-3-2-2-2-2-2-------||-3-3-3-3-3-3-3-3|-----------------------|PM- - - - - - - - - - - - - - - - - - - -||----------------|-----------------------||----------------|-----------------------||----------------|-----------------------||-9-9-9-9-9-9-9-7|-7-7-7-7-7-7-7-7-------||-7-7-7-7-7-7-7-5|-5-5-5-5-5-5-5-5-------||----------------|-----------------------|PM- - - - - - - -Slow let off PM - - - - ||----------------|-----------------------||----------------|-----------------------||----------------|-0-0-0-0-0-0-0-0-------||-5-5-5-5-5-5-5-5|-5-5-5-5-5-5-5-5-------||-3-3-3-3-3-3-3-3|-3-3-3-3-3-3-3-3-------||----------------|-----------------------|
when we're hit in the heart with problems that won't shift it's hard to admit that we're afraid when we're hit in the head with unanswered questions that repeat "how could i ever live after this day"
Lead|----------------|----------------||----------------|----------------||----------------|----------------||----------------|---9-9-9-9^10^9-||----------------|----------------||----------------|----------------|
|
|--10----10------|--10----10------||----12----12----|----12----12----||----------------|----------------||----------------|----------------||----------------|----------------||----------------|----------------|
|
|----------------|----------------||----------------|----------------|
|1111111212121212|1412121212121212||----------------|----------------||-9-9-91010101010|1210101010101010||----------------|----------------|
|
|--10----10------|--10----10------||----12----12----|----12----12----||0---------------|----------------||0---------------|----------------||----------------|----------------||----------------|----------------| x2
Rhythm Pm-- O|----------------|----------------||----------------|----------------||----------------|----------------||-5-5-5----------|----------------||-5-5-5----------|----------------||-3-3-3----------|----------------|
Pm-- O|----------------|-------------------||----------------|-------------------||-5-5-5----------|-------------------||-5-5-5----------|-------------------||-3-3-3----------|-------------------||----------------|-------------------| -O-O-O-O-O-O-O-O|-O-O-O-O-O-O-O-O---||----------------|-------------------||----------------|-------------------||-9-9-9-9-9-9-9-9|-7-7-7-7-7-7-7-7---||-9-9-9-9-9-9-9-9|-7-7-7-7-7-7-7-7---||-7-7-7-7-7-7-7-7|-5-5-5-5-5-5-5-5---||----------------|-------------------| -O-O-O-O-O-O-O-O|-O-O-O-O-O-O-O-O---||----------------|-------------------||----------------|-------------------||-5-5-5-5-5-5-5-5|-5-5-5-5-5-5-5-5---||-5-5-5-5-5-5-5-5|-5-5-5-5-5-5-5-5---||-3-3-3-3-3-3-3-3|-3-3-3-3-3-3-3-3---||----------------|-------------------| x2
Pm-- O|----------------|----------------||----------------|----------------||----------------|----------------||-5-5-5----------|----------------||-5-5-5----------|----------------||-3-3-3----------|----------------|
BRIDGELead|----------------|----------------||----------------|----------------||16--------------|14----16--------||----------------|----------------||14--------------|12----14--------||----------------|----------------|
|
|----------------|----------------||----------------|----------------||12--------------|----------------||----------------|----------------||10--------------|----------------||----------------|----------------|
|
|----------------|----------------||----------------|----------------||11----12--------|-9----11--------||----------------|----------------||-9----10--------|-7-----9--------||----------------|----------------|
|
|----------------|----------------||----------------|----------------||-7--------------|----------------||----------------|----------------||-5--------------|----------------||----------------|----------------|
|
|----------------|----------------||----------------|----------------||16--------------|14----16--------||----------------|----------------||14--------------|12----14--------||----------------|----------------|
|
|----------------|----------------||----------------|----------------||12--------------|----------------||----------------|----------------||10--------------|----------------||----------------|----------------|
|
|----------------|----------------||----------------|----------------||11----12--------|-9----11--------||----------------|----------------||-9----10--------|-7-----9--------||----------------|----------------|
|
|----------------|----------------||----------------|----------------||12--------------|----------------||----------------|1212121212121212||10--------------|1010101010101010||----------------|----------------|
Rhythm|----------------|----------------||----------------|----------------||----------------|----------------||-7--------------|-----9----------||-5--------------|-----7----------||----------------|----------------|
|
|----------------|----------------||----------------|----------------||----------------|----------------||-5--------------|----------------||-3--------------|----------------||----------------|----------------|
|
|----------------|----------------||----------------|----------------||----------------|----------------||-7--------------|----------------||-5--------------|----------------||----------------|-------7\-------|
|
|----------------|----------------||----------------|---0------------||----------------|-0--------------||-------------0--|----------------||-5--------------|----------------||-3--------------|----------------|
|
|----------------|----------------||----------------|----------------||----------------|----------------||-7--------------|----------------||-5--------------|----------------||----------------|----------------|
|
|----------------|----------------||----------------|----------------||----------------|----------------||-5--------------|----------------||-3--------------|----------------||----------------|----------------|
|
|----------------|----------------||----------------|----------------||----------------|----------------||-7--------------|----------------||-5--------------|----------------||----------------|-------7\-------|
|
|----------------|----------------||----------------|-0-0-0-0-0-0-0-0||----------------|-0-0-0-0-0-0-0-0||----------------|-0-0-0-0-0-0-0-0||-5-5-5-5-5-5-5-5|-5-5-5-5-5-5-5-5||-3-3-3-3-3-3-3-3|-3-3-3-3-3-3-3-3|
we can take the hits and grow tougher collect ourselves to live longer and find there is no need to be afraid because we all have more to offer when we struggle to cope with whatever it takes to make the days we all have what it takes to make it home Lead and Rhythm play same as 1st Chorus, with the last 4 bars repeated 3 times. Last time through, Lead plays 1st 4 bars of Bridge, Rhythm repeats last 4 bars of chorus.
Tap to rate this tab
 
# A B C D E F G H I J K L M N O P Q R S T U V W X Y Z