Houston Calls - Exit Emergency tab version 1

Artist- Houston Calls
Song- Exit Emergency
Album- A Collection Of Short Stories
Tabber- Array45


this is a really good song. im gonna start with the guitar part and when i figure
out everything the keyboard does, ill post it.

tuning- drop d


---------11------11------11------11------11----------|--11--------11------11-----11-------11------11-------|------8--------8-------8------8--------8-------8-8---|-----------------------------------------------------|-----------------------------------------------------|-----------------------------------------------------|(x7)(x7)pm. . . . . . . . . . . . . . . . . .
---------11------11------11------11------11----------|--11--------11------11-----11-------11------11-------|------8--------8-------8------8--------8-------8-8---|-----------------------------------------------------|-----------------------------------------------------|-----------------------------------------------------|(x7)(x7)
--------------------------------------------------------------------------|--------------------------------------------------------------------------|---------3~~~~---------------------------3~~~~----------------------------|---1~~~~-3~~~~-6~~~~-6-6-6-6-6-6---1~~~~-3~~~~-6~~~~-6-6-6-6-6------------|---1~~~~-1~~~~-6~~~~-6-6-6-6-6-6---1~~~~-1~~~~-6~~~~-6-6-6-6-6------------|---1~~~~-------6~~~~-6-6-6-6-6-6---1~~~~-------6~~~~-6-6-6-6-6------------|pm . . . . . . . . . .
-----------------------------------------------------------------------------|-----------------------------------------------------------------------------|-----------------------------------------------------------------------------|--1-1--1-1-3-3--3-3-6-6--6-6-8-8--8-8-1-1--1-1-3-3--3-3-6-6--6-6-8-8--8-8----|--1-1--1-1-3-3--3-3-6-6--6-6-8-8--8-8-1-1--1-1-3-3--3-3-6-6--6-6-8-8--8-8----|--1-1--1-1-3-3--3-3-6-6--6-6-8-8--8-8-1-1--1-1-3-3--3-3-6-6--6-6-8-8--8-8----|
-----------------------------------------------------------------------------|-----------------------------------------------------------------------------|-----------------------------------------------------------------------------|1-1-1-1-1-1-1-1-3-3-3-3-3-3-3-3-6-6-6-6-6-6-6-6-8-8-8-8-8-8-8-8--------------|1-1-1-1-1-1-1-1-3-3-3-3-3-3-3-3-6-6-6-6-6-6-6-6-8-8-8-8-8-8-8-8--------------|1-1-1-1-1-1-1-1-3-3-3-3-3-3-3-3-6-6-6-6-6-6-6-6-8-8-8-8-8-8-8-8--------------|. . . . . . . . . . . . . . . . . . . .
guitar 2-----------------------------------------------------------------------------|-----------------------------------------------------------------------------|-----------------------------------------------------------------------------|-----------------------------------------------------------------------------|--10-10--10-10-10p8-8-8-8p6-6-6-6p5-5-5-5h10-10-10-10p8-8-8-8h11-11-11-11p6--|-----------------------------------------------------------------------------|
-----------------|---------------------|-----------------|---------------------|-----------------|---------------------|--1---1---1---1--|---------------------|--1---1---1---1--|--6-6/15-13----------|--1---1---1---1--|---------------------|
x3---------------|---------------|------3--------|--1---3---6----|--1---1---6----|--1-------6----| (x7)(x7)(x14)
------------------|------------------|-3------3---------|-3--6---3--6--8---|-1--6---1--6--8---|----6------6--8---|x8 x8 x8 x5 x2
---------------|---------------|-8--10--13--15-|---------------|---------------|---------------|x4 x4 x4 x4
x2-----------------------------------------------------------------------------|-----------------------------------------------------------------------------|-----------------------------------------------------------------------------|1-1-1-1-1-1-1-1-3-3-3-3-3-3-3-3-6-6-6-6-6-6-6-6-8-8-8-8-8-8-8-8--------------|1-1-1-1-1-1-1-1-3-3-3-3-3-3-3-3-6-6-6-6-6-6-6-6-8-8-8-8-8-8-8-8--------------|1-1-1-1-1-1-1-1-3-3-3-3-3-3-3-3-6-6-6-6-6-6-6-6-8-8-8-8-8-8-8-8--------------|. . . . . . . . . . . . . . . . . . . .
x3---------------|------3--------|--1---3---6----|--1---1---6----|--1-------6----| (x7)(x7)(x14)
------------------|------------------|-3------3---------|-3--6---3--6--8---|-1--6---1--6--8---|----6------6--8---|x8 x8 x8 x5 x2
x4---------------------------------------------------|--8--8--8--6--6--6---9--9--9-----6---6h8p6---------|---8--8-----7--7------8--8----------------8p7------|----8--8-8---8--8--8---8--8--8--8-8-8--------------|---------------------------------------------------|---------------------------------------------------|pm...................................
-----------------|-----------------|-----------------|--1---1---1---1--|--1---1---1---1--|--1---1---1---1--|
x3---------------|------3--------|--1---3---6----|--1---1---6----|--1-------6----| (x7)(x7)(x14)
--------------|--------------|-3---3--------|-1-6-1-6-8-1--|-1-6-1-6-8-1--|---6---6-8-1--|x7 7 7 3 2
some of the strumming isnt right but im gonna try and figure it all out. this tab is accurate
Tap to rate this tab
 
# A B C D E F G H I J K L M N O P Q R S T U V W X Y Z