Hundred Reasons - Makeshift tab

-------------------------------------------------------------------------------
			     MAKESHIFT - Hundred Reasons
-------------------------------------------------------------------------------
Tabbed by: chaotic-control


Tuning: All down one step - DGCFAd

My version of this song, perhaps not 100% correct but very close im sure.

--------------------------------------------------------------|------------------7------------------------------------8------|----7-----6-------7-------------4-----6--7-----6-------7------|----9-----7-------5----------3/5---5/7---9-----7-------5------| x2--------------------------5-----------------------------------|--------------------------------------------------------------|
----------------------------------------------------------------|----------------------------------------------------------------|--------------------0---0---------------------------------------|----0-------0-----0---0---0---------0-------0-------------------| x2--5-------4-----------------------5-------4---------------------|7-----5-------3-------------3-/-7-----5-------3-----------------|
---3~-----------3~---------|---3~-----------3~---------|---0~-----------0~---------|---X~-----------X~---------|---X~-----------X~---------|---X~-----------X~---------|
------7---------------7-----------7---------------7---------|--------8---------------8-----------8---------------8-------|--0-------0-------0-----------0-------0-------0-------------|------------------------------------------------------------|7-------------7-5-----------8-------------8-----------------|--------------------------------------------8---------------|
------7---------------7-----------7---------------7---------|--------8---------------8-----------8---------------8-------|--0-------0-------0-----------0-------0-------0-------------|------------------------------------------------------------|7-------------7-5-----------8-------------8-----------------|--------------------------------------------8-----------7---|
------7---------------XX---------|--------8-----------8-XX-8-------|--6-------6---------7-XX-7-------|--------------------0-XX-0-------|----------------------XX---------|5-------------5-7-7-7-XX-8-------|
--------------------------------------------------------------|------------------7------------------------------------8------|----7-----6-------7-------------4-----6--7-----6-------7------|----9-----7-------5----------3/5---5/7---9-----7-------5------| x2--------------------------5-----------------------------------|--------------------------------------------------------------|
----------------------------------------------------------------|----------------------------------------------------------------|--------------------0---0---------------------------------------|----0-------0-----0---0---0---------0-------0-------------------| x2--5-------4-----------------------5-------4---------------------|7-----5-------3-------------3-/-7-----5-------3-----------------|
---3~-----------3~---------|---3~-----------3~---------|---0~-----------0~---------|---X~-----------X~---------|---X~-----------X~---------|---X~-----------X~---------|
------7---------------7-----------7---------------7---------|--------8---------------8-----------8---------------8-------|--0-------0-------0-----------0-------0-------0-------------|------------------------------------------------------------|7-------------7-5-----------8-------------8-----------------|--------------------------------------------8---------------|
------7---------------7-----------7---------------7---------|--------8---------------8-----------8---------------8-------|--0-------0-------0-----------0-------0-------0-------------|------------------------------------------------------------|7-------------7-5-----------8-------------8-----------------|--------------------------------------------8-----------7---|
------7---------------XX---------|--------8-----------8-XX-8-------|--6-------6---------7-XX-7-------|--------------------0-XX-0-------|----------------------XX---------|5-------------5-7-7-7-XX-8-------|
After this it goes into strumming: NOTE: Barre chords: As the guitar is tuned down you need to play these chords in their respective postions... for example F will played where G normally would be played etc...hope that makes sense. Barre Chords: F//////Bb//////Bb//////F G/////////F////Bb//////F ===============================================================================
Tap to rate this tab
 
# A B C D E F G H I J K L M N O P Q R S T U V W X Y Z