Hurriganes - My Sweet Lily tab

Hurriganes My sweet Lily
Tuning: standart
Tabbed by Eino Kolppanen

Intro|------------------------------------------||--8---10--12~---10--12--10~----15b--12----||------------------------------------------||------------------------------------------||------------------------------------------||------------------------------------------|
|------------------------------------------||-10--------10------------10--12~--10-12-10||------12---------8----12------------------||------------------------------------------||------------------------------------------||------------------------------------------|
|------------------------------------------||-12--10------10-------12--10---8----------||----------12----12------------------------||------------------------------------------||------------------------------------------||------------------------------------------|
VersePlace your fingers like G chord, but don't playthe chord, play it muted. Play it for whole verse.|--3x----------3x----------3x----------3x------||--3x----------3x----------3x----------3x------||--4x---x------4x---x------4x----x-----4x---x--||--5x---x------5x---x------5x----x-----5x---x--||--5x---x------5x---x------5x----x-----5x---x--||--3x---x------3x---x------3x----x-----3x---x--|
Chorus|------------------------------------------||--8-8-8-8-8-8-8-8-15-15-15-15-------------||--9-9-9-9-9-9-9-9-16-16-16-16-------------||------------------------------------------||------------------------------------------||------------------------------------------|
|------------------------------------------||-13-13-13-13--8-8-8-8-8-8-8-8-------------||-14-14-14-14--9-9-9-9-9-9-9-9-------------||------------------------------------------||------------------------------------------||------------------------------------------|
Solo only for 1 guitar|------------------------------------------||-8--10--12---10--12--10-------------------||---------------------------12~------------||------------------------------------------| x3|------------------------------------------||------------------------------------------|
|--------------------------------------------||--12--10--12--10--12--10--12--10--12--10-15b||--------------------------------------------||--------------------------------------------||--------------------------------------------||--------------------------------------------|
|-------------------------------------------||----------10----12----12p10----10-12p10p12-||-10---12--------------------12-------------||-------------------------------------------||-------------------------------------------||-------------------------------------------|
|-------------------------------------------||-10----10--------------------------8-------||----12----12p10/8~--10p8-----8--10---10-8~-||--------------------------10---------------||-------------------------------------------||-------------------------------------------|
|--------------------------------10---------||-------8~--10--8---10p8h10--10b----r-------||-8--10-------------------------------------||-------------------------------------------||-------------------------------------------||-------------------------------------------|
|-------------------------------------------||-10---8------------------------------------||----------10~-p9p8///----------2-----------||--------------------------0-0----0--2------||-------------------------------------------||-------------------------------------------|
Tap to rate this tab
 
# A B C D E F G H I J K L M N O P Q R S T U V W X Y Z