Hurriganes – Get On tab ver. 2



e||--8--8--8--8--8--8--8--8----8----------------------------|B||--8--8--8--8--8--8--8--8----8--11--10--8--10--8----------|G||-------------------------------11--10--8--10--8--10------|D||-------------------------------------------------10------|A||-----------------------------------------------------10--|E||---------------------------------------------------------|
e------------------------------------11------------------------|B---------8------10p8-----8------------------------------------|G---------8------10p8-----8--10b---------10r-8--10--8----------|D--8h-10-----10-------10-------------------------------10------|A----------------------------------------------------------10--|E--------------------------------------------------------------|
Guitar Solo
------------------------8~-------------------------------------------|------------8--10--8------------------10--8-----------------------8--|-----------------------------------------------8~------------8-------|------------------------------------------------------8--10----------|---------------------------------------------------------------------|---------------------------------------------------------------------|
---------------------------------8----8-------------|------------------------------8-------8------10--8--|--8-------------------8--9--------------------------|-------10------8h-10--------------------------------|-----------10---------------------------------------|----------------------------------------------------|
--11--11--11--11--11--11--11--11----11--11--11--11--11--11--11--11--|--10--10--10--10--10--10--10--10----10--10--10--10--10--10--10--10--|--------------------------------------------------------------------|--------------------------------------------------------------------|--------------------------------------------------------------------|--------------------------------------------------------------------|
--11----8------8--------------------8---8----8---------|--10-------10-----8--10----------8--10--8----8--10--8--|-------------------------9----9------------------------|-------------------------------------------------------|-------------------------------------------------------|-------------------------------------------------------|
--11------------11--------------11------------11------------|--10----8--10/8-10----8--10/8---10----8--10/8-10----8--10/8-|------------------------------------------------------------|------------------------------------------------------------|------------------------------------------------------------|------------------------------------------------------------|
--11------------11--------------11-------11~---------|--10----8--10/8-10----8--10/8---10----8--10~---------|-----------------------------------------------------|-----------------------------------------------------|-----------------------------------------------------|-----------------------------------------------------|
------8--8------8~-------8----8~-------8~-------8--8--|--10--------10-------10------------10-------10--------|------------------------------------------------------|------------------------------------------------------|------------------------------------------------------|------------------------------------------------------|
--------8------8~-------8------8--11--13--14--15--14--13--|--10-------10-------10------------------------------------|----------------------------------------------------------|----------------------------------------------------------|----------------------------------------------------------|----------------------------------------------------------|
--11--8--8------8--------8----8--8--8--8--8--8------|------------10-------10--8----8--8--8--8--8--8------|----------------------------------------------------|----------------------------------------------------|----------------------------------------------------|----------------------------------------------------|
-----------------------------------------------------------|--11--11--10--10--8---------10--------8--------------8--8--|--12--12--10--10--8--9------10--------8--9--------8--9--9--|------------------------10--------10--------10-------------|-----------------------------------------------------------|-----------------------------------------------------------|
------------------------------------------------------------|--11--11----11----11--11--11----11--11----11----11--11--11--|--12--12----12----12--12--12----12--12----12----12--12--12--|------------------------------------------------------------|------------------------------------------------------------|------------------------------------------------------------|
---------------------------------------------------------------------|--8------------------------------------------------------------------|-------8--10--8---------------------8--------------------------------|-------------------10--10----8--10-----------------------------------|---------------------------------------10----------------------------|---------------------------------------------------------------------|
No i´m not copy anything!!!
Please rate this tab:
x1.0