Get On tab with lyrics by Hurriganes - Easy chords and tabs for guitar

Hurriganes – Get On tab

INTRO

E||--8--8--8--8--8--8--8--8--|--8----------------------------|B||--8--8--8--8--8--8--8--8--|--8--11--10--8--10--8----------|G||--------------------------|-----11--10--8--10--8--10------|D||--------------------------|-----------------------10------|A||--------------------------|---------------------------10--|E||--------------------------|-------------------------------|
--------------------------------|----11------------------------|---------8------10p8-----8------|------------------------------|---------8------10p8-----8--10b-|--------10r-8--10--8----------|--8h-10-----10-------10---------|----------------------10------|--------------------------------|--------------------------10--|--------------------------------|------------------------------|
RYTHM GUITAR PLAYS THIS RIFF FOR WHOLE SONG
----------------------------------|--------------------------------|----------------------------------|--------------------------------|----------------------------------|--------------------------------|----------------------------------|--------------------------------|--10--10--12--10--10--10--12--10--|----10--12--10--10--10--12--10--|--8---8---8---8---8---8---8---8---|----8---8---8---8---8---8---8---|
----------------------------------|--------------------------------|----------------------------------|--------------------------------|----------------------------------|--------------------------------|----------------------------------|--------------------------------|--10--10--12--10--10--10--12--10--|----10--12--10--10--10--12--10--|--8---8---8---8---8---8---8---8---|----8---8---8---8---8---8---8---|
----------------------------------|--------------------------------|----------------------------------|--------------------------------|----------------------------------|--------------------------------|--10--10--12--10--10--10--12--10--|----10--12--10--10--10--12--10--|--8---8---8---8---8---8---8---8---|----8---8---8---8---8---8---8---|----------------------------------|--------------------------------|
----------------------------------|--------------------------------|----------------------------------|--------------------------------|----------------------------------|--------------------------------|----------------------------------|--------------------------------|--10--10--12--10--10--10--12--10--|----10--12--10--10--10--12--10--|--8---8---8---8---8---8---8---8---|----8---8---8---8---8---8---8---|
----------------------------------|----------------------------------|----------------------------------|----------------------------------|----------------------------------|----------------------------------|--12--12--14--12--12--12--14--12--|--12--12--14--12--12--12--14--12--|--10--10--10--10--10--10--10--10--|--10--10--10--10--10--10--10--10--|----------------------------------|----------------------------------|
CHORUS SOLO
-------------------------|---------------------|------------------|----5--------5--------5--|----------5----------|------------------|----5--------5--------5--|----------5----------|------------------|-------5--7-----5--7-----|----5--7--5----------|------------------|-------------------------|---------------------|------------------|-------------------------|---------------------|------------------|
GUITAR SOLO 1
----------------------|--8~-------------------|------------------------|------------8--10--8--|-------------8--10--8--|---------------------8--|----------------------|-----------------------|--8~------------8-------|----------------------|-----------------------|---------8--10----------|----------------------|-----------------------|------------------------|----------------------|-----------------------|------------------------|
----------------------------|-----8----8-------------|----------------------------|--8-------8------10--8--|--8-------------------8--9--|------------------------|-------10------8h-10--------|------------------------|-----------10---------------|------------------------|----------------------------|------------------------|
--11--11--11--11--11--11--11--11--|--11--11--11--11--11--11--11--11--|--10--10--10--10--10--10--10--10--|--10--10--10--10--10--10--10--10--|----------------------------------|----------------------------------|----------------------------------|----------------------------------|----------------------------------|----------------------------------|----------------------------------|----------------------------------|
--11----8------8------------|--------8---8----8---------|--10-------10-----8--10-----|-----8--10--8----8--10--8--|-------------------------9--|--9------------------------|----------------------------|---------------------------|----------------------------|---------------------------|----------------------------|---------------------------|
--11------------11------------|--11------------11------------|--10----8--10/8-10----8--10/8-|--10----8--10/8-10----8--10/8-|------------------------------|------------------------------|------------------------------|------------------------------|------------------------------|------------------------------|------------------------------|------------------------------|
--11------------11------------|--11-------11~---------|--10----8--10/8-10----8--10/8-|--10----8--10~---------|------------------------------|-----------------------|------------------------------|-----------------------|------------------------------|-----------------------|------------------------------|-----------------------|
------8--8------8~-------8--|--8~-------8~-------8--8--|--10--------10-------10-----|-------10-------10--------|----------------------------|--------------------------|----------------------------|--------------------------|----------------------------|--------------------------|----------------------------|--------------------------|
--------8------8~-------8--|----8--11--13--14--15--14--13--|--10-------10-------10-----|-------------------------------|---------------------------|-------------------------------|---------------------------|-------------------------------|---------------------------|-------------------------------|---------------------------|-------------------------------|
--11--8--8------8--------8--|--8--8--8--8--8--8------|------------10-------10--8--|--8--8--8--8--8--8------|----------------------------|------------------------|----------------------------|------------------------|----------------------------|------------------------|----------------------------|------------------------|
--------------------------------|---------------------------|--11--11--10--10--8---------10--|------8--------------8--8--|--12--12--10--10--8--9------10--|------8--9--------8--9--9--|------------------------10------|--10--------10-------------|--------------------------------|---------------------------|--------------------------------|---------------------------|
------------------------------|------------------------------|--11--11----11----11--11--11--|--11--11----11----11--11--11--|--12--12----12----12--12--12--|--12--12----12----12--12--12--|------------------------------|------------------------------|------------------------------|------------------------------|------------------------------|------------------------------|
---------------------------|------------------------|------------------|--8------------------------|------------------------|------------------|-------8--10--8------------|---------8--------------|------------------|-------------------10--10--|--8--10-----------------|------------------|---------------------------|------------10----------|------------------|---------------------------|------------------------|------------------|
GUITAR SOLO 2
------------------|--11------------11------------|--11-------11----------|------------------|--10----8--10/8-10----8--10/8-|--10----8--10----------|------------------|------------------------------|-----------------------|------------------|------------------------------|-----------------------|------------------|------------------------------|-----------------------|------------------|------------------------------|-----------------------|
------8------8------------|----------------------------|---------10-----8--10-----|----------------------------|-----------------------8--|---------------------8------|--------------------------|------10--10--8h-10-----10--|--------------------------|----------------------------|--------------------------|----------------------------|
-----------------------------|-----------------------------|--10p8-----8--8--------------|---------8------8--8---------|--10p8-10--8--8--------------|---------8------8--8------8--|---------------------10--10--|--8--10-----10--------10-----|-----------------------------|-----------------------------|-----------------------------|-----------------------------|
----------------------------------|--------------------------------|--11--11--11--11--11--11--11--11--|--11--11--11--11--11--11--11----|--12--12--12--12--12--12--12--12--|--12--12--12--12--12--12--12----|----------------------------------|--------------------------------|----------------------------------|--------------------------------|----------------------------------|--------------------------------|
--------------------------------|--15----14--13------------------|------13--13------13----15--13--|----------------16--13--15------|--12b---------12b---------------|----------------------------14--|--------------------------------|--------------------------------|--------------------------------|--------------------------------|--------------------------------|--------------------------------|
------------------------------|------------------------------|--13--------13--13--------13--|--13--------13--13--------13--|--------14------------14------|--------14------------14------|------------------------------|------------------------------|------------------------------|------------------------------|------------------------------|------------------------------|
--11--11--11--11--11--11--11--11--|--11------------------------|--13--13--13--13--13--13--13--13--|--13--------13------13--13--|----------------------------------|--------14------------------|----------------------------------|----------------------------|----------------------------------|----------------------------|----------------------------------|----------------------------|
--11--11--11--11--11--11--11--11--|--11--10--10--10--10--8--8--8--|--13--13--13--13--13--13--13--13--|--13--11--11--11--11--8--8--8--|----------------------------------|-------------------------------|----------------------------------|-------------------------------|----------------------------------|-------------------------------|----------------------------------|-------------------------------|
--5/---11--11--11--11--11--11--11--11--11--|-------10--10--10--10--10--10--10--10--10--|-------------------------------------------|-------------------------------------------|-------------------------------------------|-------------------------------------------|
--11--11--11--11--11--11--11--11--11--11--11--11--|--10--10--10--10--10--10--10--10--10--10--10--10--|--------------------------------------------------|--------------------------------------------------|--------------------------------------------------|--------------------------------------------------|
--11--12--13--11--12--13--11--12--|--13--11--8--8--------8-----|----------------------------------|------------------11-----8--|----------------------------------|----------------------------|----------------------------------|----------------------------|----------------------------------|----------------------------|----------------------------------|----------------------------|
--8b-------------------------|---------------------------|-------11--8----------8------|---------------------------|------------------10-----10--|--8------------------8--9--|-----------------------------|-------10--9--8--10--------|-----------------------------|---------------------------|-----------------------------|---------------------------|
--------------------------|-----------------------|------------------|--8--------8--------8-----|----8--------11b-------|------------------|-----8--9-----8--9-----8--|-------8--9------------|------------------|--------------------------|-----------------------|------------------|--------------------------|-----------------------|------------------|--------------------------|-----------------------|------------------|
REST OF THE CHORUS SOLOS
------------------|-----------8--8b---8------|--8------8--8----------|------------------|----8--10-------------10--|-----10----------------|------------------|--------------------------|-----------------------|------------------|--------------------------|-----------------------|------------------|--------------------------|-----------------------|------------------|--------------------------|-----------------------|
------------------|------------------|--------------------------------|------------------|------------------|----10--11--11--10--11--11--11--|------------------|------------------|----11--12--12--11--12--12--12--|------------------|------------------|--------------------------------|------------------|------------------|--------------------------------|------------------|------------------|--------------------------------|
--------------------------|------------------|------------------|--10--11--11--11----------|------------------|------------------|--11--12--12--12----------|------------------|------------------|--------------------------|------------------|------------------|--------------------------|------------------|------------------|--------------------------|------------------|------------------|
----------15--------15------|----15------------------|------------------|----14b-------14b-------14b-|--------13--------------|------------------|----------------------------|------------12----------|------------------|----------------------------|------------------------|------------------|----------------------------|------------------------|------------------|----------------------------|------------------------|------------------|
------------------|----11--------------------------------|------------------|----------13--15p-13------13p-11------|------------------|----------------------14----------12--|------------------|--------------------------------------|------------------|--------------------------------------|------------------|--------------------------------------|
---------------------------|------------------|------------------|---------------------------|------------------|------------------|--10p-9---------8----------|------------------|------------------|---------10--8-------------|------------------|------------------|---------------------------|------------------|------------------|---------------------------|------------------|------------------|
------------------------------|--------------------------|------------------|------------------------------|--------------------------|------------------|----12--12------12------------|----------12--------------|------------------|----13--13--10--13----10------|------10--13--10----------|------------------|--------------------------13--|--13----------------------|------------------|------------------------------|--------------------------|------------------|
------------------|------------------------------|--11----------------------|------------------|--------10--13--13----15--13--|-------13-----------------|------------------|----12------------------------|----------14--12----------|------------------|------------------------------|--------------------------|------------------|------------------------------|--------------------------|------------------|------------------------------|--------------------------|
------------------|------------------|------------------------------|------------------|------------------|--------10--13--13b---13------|------------------|------------------|----12--------------------14--|------------------|------------------|------------------------------|------------------|------------------|------------------------------|------------------|------------------|------------------------------|
--------------------------|------------------|------------------|--13------13--13----------|------------------|------------------|------14------------------|------------------|------------------|--------------------------|------------------|------------------|--------------------------|------------------|------------------|--------------------------|------------------|------------------|
----11--12/-13/-12/---8----|--------------------------|------------------|---------------------------|------13------------------|------------------|---------------------------|--14------12--------------|------------------|---------------------------|--------------13----------|------------------|---------------------------|--------------------------|------------------|---------------------------|--------------------------|------------------|
------------------|----11--11--11--11--11--11--11--|--11----------------------|------------------|----10--10--10--10--10--10--10--|--10----------------------|------------------|--------------------------------|--------12------12--------|------------------|--------------------------------|------------13------------|------------------|--------------------------------|--------------------------|------------------|--------------------------------|--------------------------|
------------------|------------------|------------------|------------------|------------------|------------------|------------------|------------------|------------------|------------------|------------------|------------------|
--12--12--12--12--12--12--12--12--12--12--12--12--|--11--11--11--11--11--11--11--11--11--11--11--11--|--------------------------------------------------|--------------------------------------------------|--------------------------------------------------|--------------------------------------------------|
--12--12--12--12--12--12--12--12--12--12--12--12--|------------------|--11--11--11--11--11--11--11--11--11--11--11--11--|------------------|--------------------------------------------------|------------------|--------------------------------------------------|------------------|--------------------------------------------------|------------------|--------------------------------------------------|------------------|
------------------|--12--12-12-12--12--12-12-12--12--12-12-12--12--12-12-12--|------------------|--11--11-11-11--11--11-11-11--11--11-11-11--11--11-11-11--|------------------|----------------------------------------------------------|------------------|----------------------------------------------------------|------------------|----------------------------------------------------------|------------------|----------------------------------------------------------|
--12--12-12-12--12--12-12-12--12--12-12-12--12--12-12-12--|------------------|--11--11-11-11--11--11-11-11--11--11-11-11--11--11-11-11--|------------------|----------------------------------------------------------|------------------|----------------------------------------------------------|------------------|----------------------------------------------------------|------------------|----------------------------------------------------------|------------------|
------------------|--------------------------------|-------------------------|------------------|----11--11--11--11--11--11--11--|--11---------------------|------------------|----12--12--12--12--12--12--12--|--12------9--------------|------------------|--------------------------------|------13-----10----------|------------------|--------------------------------|-------------------------|------------------|--------------------------------|-------------------------|
------------------|-------------------|-------------------||------------------|-------------------|-------------------||------------------|----------------8--|-------------------||------------------|----------------5--|-------------------||------------------|----------------6--|--3----------------||------------------|-------------------|-------------------||
Please rate this tab:
x1.0