I Am Ghost - Pretty People Never Lie Vampires Never Really Die tab

I AM GHOST - PRETTY PEOPLE NEVER LIE, VAMPIRES NEVER REALLY DIE
TABBED BY GEORGE WILLIAMS 
DROPPED D TUNING (DADBGE) 

ahh well the only tab for this whole song on here wasnt to my liking, as i'm 
afraid im rather picky, and its an epic song, so
i thought i'd give you a treat and figured it out. it's all right, and the solo, 
which is veryy fun to play is all there. it's not tooo hard, but the solo might 
take a while for novices.

legend: 

| b    bend 
| r    return 
| /    slide up 
| \    slide down 
| h    hammer on 
| p    pull off 
| *    pinch harmonic 
| ~    tremolo 
| ...  palm muted 
| x    muted note 
| (n)  optional note 
| tp   tremolo picked
| ==   hold bend


INTRO pt.1:

|-11----11----11----11--11--11-||-15----15----15----15--15--15-||------------------------------||------------------------------| x4|------------------------------||------------------------------|
INTRO pt.2:
|--------------------------------||--------------------------------||--------------------------------||-0-7h8-0-5h7-0-3h5-0-2h3-2---0~-| x3|---------------------------3----||--------------------------------|
|--------------------------------||--------------------------------||--------------------------------||-0-2-3-0-3-2-0-5--3--2-2h3p2----||-----------------------------3~-||--------------------------------|
|--------------------------------|----------------------------------||--------------------------------|----------------------------------||--------------------------------|----------------------------------||-0t3t7-0t3t7-0t3t7-0t3t7-0t3t7~-|-0t3t8-0h7-0-7-10--8--7-7h8p7-----||--------------------------------|------------------------------10~-||--------------------------------|----------------------------------|
|--------------------------------|-------------------------------------||--------------------------------|-------------------------------------||------------------------7-8-10~-|-------------3-5-3-------------------||-0-7-8-0-7-0-7-8-7-8-10---------|-------3-5-7-------7-5-7-5-3---3-----||--------------------------------|-3-5-7-----------------------7---5~~-||--------------------------------|-------------------------------------|
|------7--7------7--7----7-||-----11-11-----11-11---11-||--------------------------||--------------------------| x3|-0-0-------0-0-------0----||-0-0-------0-0-------0----|
|-3-| |-3-| |-3-| |-3-| |-3-| |-3-| |-3-| |-3-| |----------------------------------------------------||----------------------------------------------------||----------------------------------------------------||-7-5-3-5-3---3--------------------------------------||-----------7---7-5-7-5-3-5-3---3-----------------0~-||-----------------------------7---7-5-7-5-3-5-3-2-0~-|
VERSE:
"as hollow, and tasteless..."|---------------------------------------------------------------------||---------------------------------------------------------------------||-7-7-7-7-7-7-7-7-7-7-7-7-7-7-10-10-9-9-9-9-9-9-9-9-9-9-9-9-9-9-12-12-||---------------------------------------------------------------------||---------------------------------------------------------------------||---------------------------------------------------------------------|
|-------------------------------------------------------------------------||-------------------------------------------------------------------------||-10-10-10-10-10-10-10-10-10-10-10-10-10-10-14-14-12-12-12-12-12-12-12-12-||-------------------------------------------------------------------------||-------------------------------------------------------------------------||-------------------------------------------------------------------------|
"do you know, i'll never.."|----------------------|------------------------||----------------------|------------------------||-15-15-15-15-15-15-15-|-10-----10-12-----12-13-||----------------------|--x------x--x------x--x-||----------------------|--8------8-10-----10-11-||----------------------|------------------------|
|-------------------------------------------------||-------------------------------------------------||-14-10----------10-14-10----------10-14-10----10-||-------14-12-14----------14-12-14----------14----| x2|-------------------------------------------------||-------------------------------------------------|
CHORUS:
|-----------------------------------------------------------||-----------------------------------------------------------||-----------------------------------------------------------||-7--7-7-7--7--7-7-7-7-7-7-7-7------------------------------||-5--5-5-5--5--5-5-5-5-5-5-5-5-8--8-8-8--8--8-8-8-8-8-8-8-8-|\|------------------------------8--8-8-8--8--8-8-8-8-8-8-8-8-| \
x2|-----------------------------------------------------------| /|-----------------------------------------------------------|/|-----------------------------------------------------------||-7--7-7-7--7--7-7-7-7-7-7-7-7-5--5-5-5--5--5-5-5-5-5-5-5-5-||-5--5-5-5--5--5-5-5-5-5-5-5-5-3--3-3-3--3--3-3-3-3-3-3-3-3-||-----------------------------------------------------------|
|----------------------------------||----------------------------------||----------------------------------||----------------------------------||-0-0---0-0--0-0---0-0---0-0--0-0--||-0-0---0-0--0-0---0-0---0-0--0-0--|
|-------------------------------------------------||-------------------------------------------------||-14-10----------10-14-10----------10-14-10----10-||-------14-12-14----------14-12-14----------14----| x2|-------------------------------------------------||-------------------------------------------------|
VERSE 2:
|----------------------------------------------------------------||----------------------------------------------------------------||----------------------------------------------------------------||----------------------------------------------------------------||----------------------------------------------------------------||-0-0-0-0-0-0-0-0--0-0-0-0-0-0-0--8-8-8-8-8-8-8-8--8-8-8-8-8-8-8-|
|----------------------------------------------------------------||----------------------------------------------------------------||----------------------------------------------------------------||----------------------------------------------------------------||----------------------------------------------------------------||-7-7-7-7-7-7-7-7--7-7-7-7-7-7-7--5-5-5-5-5-5-5-5--3-3-3-3-3-3-3-|
|---------------------------------------------------------------------||---------------------------------------------------------------------||-7-7-7-7-7-7-7-7-7-7-7-7-7-7-10-10-9-9-9-9-9-9-9-9-9-9-9-9-9-9-12-12-||---------------------------------------------------------------------||---------------------------------------------------------------------||---------------------------------------------------------------------|
|-------------------------------------------------------------------------||-------------------------------------------------------------------------||-10-10-10-10-10-10-10-10-10-10-10-10-10-10-14-14-12-12-12-12-12-12-12-12-||-------------------------------------------------------------------------||-------------------------------------------------------------------------||-------------------------------------------------------------------------|
|----------------------||----------------------||-15-15-15-15-15-15-15-||----------------------||----------------------||----------------------|
|----------------------------------------------------------------||----------------------------------------------------------------||-7p0h5-7p0h5-7p0h5-7p0h5-7p0h7~--8p0h7-8p0h7-8p0h7-8p0h7-8p0h8~-||----------------------------------------------------------------||----------------------------------------------------------------||----------------------------------------------------------------|
*NOT SURE ABOUT THESE PARTS. KIND OF A GUESS..|-----------------------------------------------------------------||---------------------------------------10-----10----10----10-----||-10p0h8-10p0h8-10p0h8-10p0h8-10p0h10~--12b14--12b14-12b14-12b14~-||-----------------------------------------------------------------||-----------------------------------------------------------------||-----------------------------------------------------------------|
then carry on with the usual ending to the verse >REPEAT CHORUS< BREAK
|--------------------------------||--------------------------------||--------------------------------||-7-7-7-7-7-7-7-7--7-7-7-7-7-7-7-| x4|-5-5-5-5-5-5-5-5--5-5-5-5-5-5-5-||-0-0-0-0-0-0-0-0--0-0-0-0-0-0-0-|
|---------------------||---------------------||---10-9-10---10-9-10-||-0---------0---------| x16|---------------------||---------------------|
PRESOLO:
|--9~------9~-----11~----13~--||-13~-----13~-----15~----17~--||-----------------------------||-----------------------------||-----------------------------||-----------------------------|
SOLO! :D i'll write it out in sections, to make it easier to understand.
|-------------------------------------------------||-------------------------------------------------||-14-14p12p10-10h12----10-10-10---------7h9h10----||-------------------14-----------7h8h10--------7~-||-------------------------------------------------||-------------------------------------------------|
|---------------------------------------------------||---------------------------------------------------||-15-15p14p12-12h14----12-12-12----------9h10h12----||-------------------15-----------8h10h12---------8~-||---------------------------------------------------||---------------------------------------------------|
|--------------------------------------------------------------------------||--------------------------------------------------------------------------||-17-17p15p14-17p15p14-15p14p12-15p14p12-14p12p10-14p12p10-12p10p9-12p10p9-||--------------------------------------------------------------------------||--------------------------------------------------------------------------||--------------------------------------------------------------------------|
|---------------------------------------||-------------------------13------------||--7-7-10-7-9-10-7-/12b14====14r12b14~~-||---------------------------------------||---------------------------------------||---------------------------------------|
|----------------------------------------------------------------------||----------------------------------------------------------------------||-7/10-14t7t10-14t7t10-14t7t10-14t7t10-14t7t10-14t7t10-14t7t10-14t7t10-||----------------------------------------------------------------------||----------------------------------------------------------------------||----------------------------------------------------------------------|
|-------------------------------------------------------------||-------------------------------------------------------------||-15t7t10-15t7t10-15t7t10-15t7t10-15t7t10-15t7t10-15/17-17-17-||-------------------------------------------------------------||-------------------------------------------------------------||-------------------------------------------------------------|
|--------------------------------------------||--------------------------------------------||-17p15p14-14-15-14----14--------------------||-------------------17----17-15-17-15-14-15~-||--------------------------------------------||--------------------------------------------|
|-------------------------------------------------------------||-------------------------------------------------------------||-------------------12h14h15-------------------12h14h15-/17~~-||----------12h14h15----------12h14h15-14h15h17----------------||-12h14h15----------------------------------------------------||-------------------------------------------------------------|
|-------------------------------||-------------------------------||-------------------------------||-------------------------------||-0--0--0--0--0-0--0--0--0--0~--||-0--0--0--0--0-0--0--0--0--0~--|
>REPEAT CHORUS< >REPEAT CHORUS< and that's it :) enjoy, and comment. thanks for looking
Tap to rate this tab
 
# A B C D E F G H I J K L M N O P Q R S T U V W X Y Z