I Declare War – Destroy The Weak tab

                                DESTROY THE WEAK
                          As recorded by I Declare War
                   (From the 2007 Album AMIDST THE BLOODSHED)

Words and Music by I Declare War
Arranged by I Declare War
Transcribed by Evan Hughes

Gtr I (A# F A# D# G C) - 'Jake Paulson'
Gtr II (A# F A# D# G C) - 'Evan Hughes'

Q=180 4/4 Gtr I PM--------------------| PM||--------------------------|-----------------|||o-------------------------|-----------------|||--------------------------|-----------------|||--------------------------|-------8---------|||o-------------------------|-8p5-----7-0-5h8-|||--0-0-0-0-0-0-0-0-0-0-0-0-|-----0-----------|
|
| Gtr II| PM--------------------| PM||--------------------------|-----------------|||o-------------------------|-----------------|||--------------------------|-----------------|||--------------------------|-------8---------|||o-------------------------|-8p5-----7-0-5h8-|||--0-0-0-0-0-0-0-0-0-0-0-0-|-----0-----------|
PM--------------------| PM|-------------------------|------------------||-------------------------|------------------||-------------------------|------------------||-------------------------|------------------||-------------------------|-8p5---3h7-0------||-0-0-0-0-0-0-0-0-0-0-0-0-|-----0-------8p7--|
|
| PM--------------------| PM|-------------------------|------------------||-------------------------|------------------||-------------------------|------------------||-------------------------|------------------||-------------------------|-8p5---3h7-0-5p4--||-0-0-0-0-0-0-0-0-0-0-0-0-|-----0------------|
H.=H PM--------------------| PM TP TP ~~~~
3x|-------------------------|-----------------|----------|----------------|||-------------------------|-----------------|----------|---------------o|||-------------------------|-----------------|----------|----------------|||-------------------------|-------8---------|----------|----------------|||-------------------------|-8p5-----7-0-5h8-|----------|--------[3]----o|||-0-0-0-0-0-0-0-0-0-0-0-0-|-----0-----------|-8--------|--7-------------||
| | PM--------------------| PM TP TP ~~~~
| 3x|-------------------------|-----------------|----------|----------------|||-------------------------|-----------------|----------|---------------o|||-------------------------|-----------------|----------|----------------|||-------------------------|-------8---------|----------|----------------|||-------------------------|-8p5-----7-0-5h8-|----------|-------[11]----o|||-0-0-0-0-0-0-0-0-0-0-0-0-|-----0-----------|-8--------|-11-------------||
Q=120 Gtrs I, II PM-------------------------------------|||-----------------------|----------------------|||o----------------------|----------------------|||-----------------------|----------------------|||-----------------------|----------------------|||o-0-0-0-0-0-0-0-0-0----|-(0)-0-0-0-0-0-0-0----|||--1-1-1-1-1-1-1-1-1----|-(1)-1-1-1-1-1-1-1----|
PM-------------------------------------||----------------------|-----------------------|||----------------------|----------------------o|||----------------------|-----------------------|||----------------------|-----------------------|||-0-0-0-0-0-0-0-0-0----|-(0)-0-0-0-0-0-0-0----o|||-1-1-1-1-1-1-1-1-1----|-(1)-1-1-1-1-1-1-1-----||
Q=180 Gtr I TP TP TP TP TP TP TP TP TP TP TP TP TP TP TP TP|-------------|--------------|-------------|---------------||-------------|--------------|-------------|---------------||-------------|--------------|-------------|---------------||-------------|--------------|-------------|--8--7---------||-------8--7--|-10--8--7--8--|-------8--7--|--------8--7---||-8--7--------|--------------|-8--7--------|---------------|
|
| Gtr II| TP TP TP TP TP TP TP TP TP TP TP TP TP TP TP TP|-------------|--------------|-------------|---------------||-------------|--------------|-------------|---------------||-------------|--------------|-------------|---------------||-------------|--------------|-------------|---------------||-------8--7--|-10--8--7--8--|-------8--7--|-10--8--5--4---||-8--7--------|--------------|-8--7--------|---------------|
TP TP TP TP TP TP TP TP TP TP TP TP TP TP TP ~~~|-------------|--------------|-------------|-----------------||-------------|--------------|-------------|-----------------||-------------|--------------|-------------|-----------------||-------------|--------------|-------------|--8--7-----------||-------8--7--|-10--8--7--8--|-------8--7--|--------8--[7]---||-8--7--------|--------------|-8--7--------|-----------------|
|
| TP TP TP TP TP TP TP TP TP TP TP TP TP TP TP ~~~|-------------|--------------|-------------|-----------------||-------------|--------------|-------------|-----------------||-------------|--------------|-------------|-----------------||-------------|--------------|-------------|-----------------||-------8--7--|-10--8--7--8--|-------8--7--|-10--8--5--[4]---||-8--7--------|--------------|-8--7--------|-----------------|
PM---------------------------------------------------------------||-----------------------|-------------|-----------------------|---------------||-----------------------|-------------|-----------------------|---------------||-----------------------|-------------|-----------------------|---------------||-----------------------|-------------|-----------------------|---------------||-0-0-0-0-0-0-0-0-0--0--|-0--0--0--0--|-0-0-0-0-0-0-0-0-0--0--|-0--0--8p7-5p4-||-0-0-0-0-0-0-0-0-0--0--|-0--0--0--0--|-0-0-0-0-0-0-0-0-0--0--|-0--0----------|
|
| PM---------------------------------------------------------------||-----------------------|-------------|-----------------------|---------------||-----------------------|-------------|-----------------------|---------------||-----------------------|-------------|-----------------------|---------------||-----------------------|-------------|-----------------------|---------------||-0-0-0-0-0-0-0-0-0--0--|-0--0--0--0--|-0-0-0-0-0-0-0-0-0--0--|-0--0--8p7-----||-0-0-0-0-0-0-0-0-0--0--|-0--0--0--0--|-0-0-0-0-0-0-0-0-0--0--|-0--0------8p7-|
PM-----------------------------------|-----------------------|-------------||-----------------------|-------------||-----------------------|-------------||-----------------------|-------------||-0-0-0-0-0-0-0-0-0--0--|-0--0--0--0--||-0-0-0-0-0-0-0-0-0--0--|-0--0--0--0--|
|
| PM-----------------------------------|-----------------------|-------------||-----------------------|-------------||-----------------------|-------------||-----------------------|-------------||-0-0-0-0-0-0-0-0-0--0--|-0--0--0--0--||-0-0-0-0-0-0-0-0-0--0--|-0--0--0--0--|
----------------------------||-----------------------|-----------------||-----------------------|-----------------||-----------------------|-----------------||-----------------------|-----------------||-0-0-0-0-0-0-0-0-0--0--|-0--0--8p7-10h12-||-0-0-0-0-0-0-0-0-0--0--|-0--0------------|
|
|----------------------------||-----------------------|-----------------||-----------------------|-----------------||-----------------------|-----------------||-----------------------|-----------------||-0-0-0-0-0-0-0-0-0--0--|-0--0--8p7--7h=8-||-0-0-0-0-0-0-0-0-0--0--|-0--0------------|
PM---------------------------------------------------------------||-----------------------|-------------|-----------------------|---------------||-----------------------|-------------|-----------------------|---------------||-----------------------|-------------|-----------------------|---------------||-----------------------|-------------|-----------------------|---------------||-0-0-0-0-0-0-0-0-0--0--|-0--0--0--0--|-0-0-0-0-0-0-0-0-0--0--|-0--0--8p7-5p4-||-0-0-0-0-0-0-0-0-0--0--|-0--0--0--0--|-0-0-0-0-0-0-0-0-0--0--|-0--0----------|
|
| PM---------------------------------------------------------------||-----------------------|-------------|-----------------------|---------------||-----------------------|-------------|-----------------------|---------------||-----------------------|-------------|-----------------------|---------------||-----------------------|-------------|-----------------------|---------------||-0-0-0-0-0-0-0-0-0--0--|-0--0--0--0--|-0-0-0-0-0-0-0-0-0--0--|-0--0--5p4-----||-0-0-0-0-0-0-0-0-0--0--|-0--0--0--0--|-0-0-0-0-0-0-0-0-0--0--|-0--0------8p7-|
PM-----------------------------------|-----------------------|-------------||-----------------------|-------------||-----------------------|-------------||-----------------------|-------------||-0-0-0-0-0-0-0-0-0--0--|-0--0--0--0--||-0-0-0-0-0-0-0-0-0--0--|-0--0--0--0--|
|
| PM-----------------------------------|-----------------------|-------------||-----------------------|-------------||-----------------------|-------------||-----------------------|-------------||-0-0-0-0-0-0-0-0-0--0--|-0--0--0--0--||-0-0-0-0-0-0-0-0-0--0--|-0--0--0--0--|
----------------------------||-----------------------|-----------------||-----------------------|-----------------||-----------------------|-----------------||-----------------------|-----------------||-0-0-0-0-0-0-0-0-0--0--|-0--0--8p7-10h12-||-0-0-0-0-0-0-0-0-0--0--|-0--0------------|
|
|----------------------------||-----------------------|-----------------||-----------------------|-----------------||-----------------------|-----------------||-----------------------|-----------------||-0-0-0-0-0-0-0-0-0--0--|-0--0--5p4--7h=8-||-0-0-0-0-0-0-0-0-0--0--|-0--0------------|
PM----------------------||-----------------------|----------||-----------------------|----------||-----------------------|----------||-----------------------|----------||-0-0-0-0-0-0-0-0-0--0--|-0--------||-0-0-0-0-0-0-0-0-0--0--|-0--------|
|
| PM----------------------||-----------------------|----------||-----------------------|----------||-----------------------|----------||-----------------------|----------||-0-0-0-0-0-0-0-0-0--0--|-0--------||-0-0-0-0-0-0-0-0-0--0--|-0--------|
PM-------------------------||-----------------------|--------------------||-----------------------|--------------------||-----------------------|--------------------||-----------------------|--------------------||-0-0-0-0-0-0-0-0-0--0--|-0--0--7h8p7-4h5p4--||-0-0-0-0-0-0-0-0-0--0--|-0--0---------------|
|
| PM-------------------------||-----------------------|--------------------||-----------------------|--------------------||-----------------------|--------------------||-----------------------|--------------------||-0-0-0-0-0-0-0-0-0--0--|-0--0--4h5p4--------||-0-0-0-0-0-0-0-0-0--0--|-0--0--------7h8p7--|
PM----------------------||-----------------------|----------||-----------------------|----------||-----------------------|----------||-----------------------|----------||-0-0-0-0-0-0-0-0-0--0--|-0--------||-0-0-0-0-0-0-0-0-0--0--|-0--------|
|
| PM----------------------||-----------------------|----------||-----------------------|----------||-----------------------|----------||-----------------------|----------||-0-0-0-0-0-0-0-0-0--0--|-0--------||-0-0-0-0-0-0-0-0-0--0--|-0--------|
PM-------------------------||-----------------------|-----------------------||-----------------------|-----------------------||-----------------------|-----------------------||-----------------------|-----------------------||-0-0-0-0-0-0-0-0-0--0--|-0--0--7h8p7-10h12p10--||-0-0-0-0-0-0-0-0-0--0--|-0--0------------------|
|
| PM-------------------------||-----------------------|-----------------------||-----------------------|-----------------------||-----------------------|-----------------------||-----------------------|-----------------------||-0-0-0-0-0-0-0-0-0--0--|-0--0--4h5p4--7h=8p=7--||-0-0-0-0-0-0-0-0-0--0--|-0--0------------------|
Gtrs I, II PM--------| PM--||----------|-------------|----------|-----------------||----------|-------------|----------|-----------------||----------|-------------|----------|-----------------||----------|-------------|----------|-----------------||-8--------|-8-7-5-7-5-0-|-5--------|-7-5-0-5--(5)-0--||-8--------|-8-7-5-7-5-0-|-5--------|-7-5-0-5--(5)-0--|
Gtr I PM PM PM PM PM PM|-------------------|-------------------||-------------------|-------------------||-------------------|-------------------||-------------------|-------------------||-(0)---8---7---5-0-|-(0)---8---7---5-8-||-(0)-0---0---0---0-|-(0)-0---0---0---8-|
|
| Gtr II|-------------------|-------------------||-------------------|-------------------||-------------------|-------------------||-------------------|-------------------||-(0)-------------0-|-(0)-------------8-||-(0)-------------0-|-(0)-------------8-|
PM PM PM PM|-------------------|-----------------------||-------------------|-----------------------||-------------------|-----------------------||-------------------|-----------------------||-(8)---8---7---5---|-5h7p5p0-8-7-10-8-7-0--||-(8)-0---0---0---0-|--------------------0--|
|
|-------------------|-----------------------||-------------------|-----------------------||-------------------|-----------------------||-------------------|-3h5p3p0-7-5--8-7-5----||-(8)---------------|--------------------0--||-(8)---------------|--------------------0--|
Gtrs I, II PM PM PM PM PM PM|-------------------|-------------------||-------------------|-------------------||-------------------|-------------------||-------------------|-------------------||-(0)---8---7---5-0-|-(0)---8---7---5-8-||-(0)-0---0---0---0-|-(0)-0---0---0---8-|
PM PM PM PM PM PM|-------------------|--------------------||-------------------|--------------------||-------------------|--------------------||-------------------|--------------------||-(8)---8---7---5-8-|-(8)---8---7---5-5--||-(8)-0---0---0---8-|-(8)-0---0---0---5--|
Gtr I|-------------------|-------------------||-------------------|-------------------||-------------------|-------------------||-------------------|-------------------||-(5)---8---7---5-5-|-(5)---8---7---5-8-||-(5)-0---0---0---5-|-(5)-0---0---0---8-|
|
| Gtr II|-------------------|-------------------||-------------------|-------------------||-------------------|-------------------||-------------------|-------------------||-(5)---8---7---5-5-|-(5)---8---7---5-8-||-(5)-0---0---0---5-|-(5)-0---0---0---8-|
PM PM PM|-------------------|-----------------------||-------------------|-----------------------||-------------------|-----------------------||-------------------|-----------------------||-(8)---8---7---5---|-5h7p5p0-8-7-10-8-7-0--||-(8)-0---0---0---0-|--------------------0--|
|
| PM PM PM|-------------------|-----------------------||-------------------|-----------------------||-------------------|-----------------------||-------------------|-3h5p3p0-7-5--8-7-5----||-(8)---8---7---5---|--------------------0--||-(8)-0---0---0---0-|--------------------0--|
PM PM PM PM PM PM|---------------------|---------------------||---------------------|---------------------||---------------------|---------------------||---------------------|---------------------||-(0)----8----7---5-0-|-(0)----8----7---5-8-||-(0)-0----0----0---0-|-(0)-0----0----0---8-|
|
| PM PM PM PM PM PM|---------------------|---------------------||---------------------|---------------------||---------------------|---------------------||---------------------|---------------------||-(0)---12---10---8-0-|-(0)---12---10---8-8-||-(0)-0----0----0---0-|-(0)-0----0----0---8-|
PM PM PM PM PM PM|---------------------|----------------------||---------------------|----------------------||---------------------|----------------------||---------------------|----------------------||-(8)----8----7---5-8-|-(8)----8----7---5-5--||-(8)-0----0----0---8-|-(8)-0----0----0---5--|
|
| PM PM PM PM PM PM|---------------------|----------------------||---------------------|----------------------||---------------------|----------------------||---------------------|----------------------||-(8)---12---10---8-8-|-(8)---12---10---8-5--||-(8)-0----0----0---8-|-(8)-0----0----0---5--|
H.=H PM PM PM|---------------------|---------------------|---------------------||---------------------|---------------------|---------------------||---------------------|---------------------|---------------------||---------------------|---------------------|---------------------||-(5)----8----7---5-5-|-(5)----8----7---5-8-|-(8)----8----7---5---||-(5)-0----0----0---5-|-(5)-0----0----0---8-|-(8)-0----0----0---0-|
|
| PM PM PM PM PM PM PM PM PM|---------------------|---------------------|---------------------||---------------------|---------------------|---------------------||---------------------|---------------------|---------------------||---------------------|---------------------|---------------------||-(5)---12---10---8-5-|-(5)---12---10---8-8-|-(8)---12---10---8---||-(5)-0----0----0---5-|-(5)-0----0----0---8-|-(8)-0----0----0---0-|
|-------------------------------------------------||-------------------------------------------------||-------------------------------------------------||-------------------------------------------------||-------------------------------------------------||-5b5.5-(5)-0-3b3.5-(3)-0-1b1.5-(1)-0-[3]b5-([3])-|
|
|-------------------------------------------------||-------------------------------------------------||-------------------------------------------------||-------------------------------------------------||-------------------------------------------------||-5b5.5-(5)-0-3b3.5-(3)-0-1b1.5-(1)-0-[3]b5-([3])-|
Q=100|-----------------------|-------------||-----------------------|-------------||-----------------------|-------------||-----------------------|-------------||-----------------------|-------------||-----------------------|-------------|
|
| PM-----------------------------------|-----------------------|-------------||-----------------------|-------------||-----------------------|-------------||-----------------------|-------------||-0-0-0-0-0-0-0-0-0--5--|-3--1--3--1--||-0-0-0-0-0-0-0-0-0--5--|-3--1--3--1--|
|-----------------------|-------------------||-----------------------|-------------------||-----------------------|-------------------||-----------------------|-------------------||-----------------------|-------8-----7-----||-----------------------|-------8-----7-----|
|
|----------------------------||-----------------------|-------------------||-----------------------|-------------------||-----------------------|-------------------||-----------------------|-------7tr8--6tr7--||-0-0-0-0-0-0-0-0-0--5--|-3--1--------------||-0-0-0-0-0-0-0-0-0--5--|-3--1--------------|
PM-----------------------------------|-----------------------|-------------||-----------------------|-------------||-----------------------|-------------||-----------------------|-------------||-0-0-0-0-0-0-0-0-0--5--|-3--1--3--1--||-0-0-0-0-0-0-0-0-0--5--|-3--1--3--1--|
|
| PM-----------------------------------|-----------------------|-------------||-----------------------|-------------||-----------------------|-------------||-----------------------|-------------||-0-0-0-0-0-0-0-0-0--5--|-3--1--3--1--||-0-0-0-0-0-0-0-0-0--5--|-3--1--3--1--|
----------------------------||-----------------------|-------------------||-----------------------|-------------------||-----------------------|-------------------||-----------------------|-------------------||-0-0-0-0-0-0-0-0-0--5--|-3--1--8-----7-----||-0-0-0-0-0-0-0-0-0--5--|-3--1--8-----7-----|
|
|----------------------------||-----------------------|-------------------||-----------------------|-------------------||-----------------------|-------------------||-----------------------|-------7tr8--6tr7--||-0-0-0-0-0-0-0-0-0--5--|-3--1--------------||-0-0-0-0-0-0-0-0-0--5--|-3--1--------------|
PM-----------------------------------|-----------------------|-------------||-----------------------|-------------||-----------------------|-------------||-----------------------|-------------||-0-0-0-0-0-0-0-0-0--5--|-3--1--3--1--||-0-0-0-0-0-0-0-0-0--5--|-3--1--3--1--|
|
| PM-----------------------------------|-----------------------|-------------||-----------------------|-------------||-----------------------|-------------||-----------------------|-------------||-0-0-0-0-0-0-0-0-0--5--|-3--1--3--1--||-0-0-0-0-0-0-0-0-0--5--|-3--1--3--1--|
----------------------------||-----------------------|-------------------||-----------------------|-------------------||-----------------------|-------------------||-----------------------|-------7tr8--6tr7--||-0-0-0-0-0-0-0-0-0--5--|-3--1--------------||-0-0-0-0-0-0-0-0-0--5--|-3--1--------------|
|
|----------------------------||-----------------------|-------------------||-----------------------|-------------------||-----------------------|-------------------||-----------------------|-------7tr8--6tr7--||-0-0-0-0-0-0-0-0-0--5--|-3--1--------------||-0-0-0-0-0-0-0-0-0--5--|-3--1--------------|
PM-----------------------------------------------------------|-----------------------|-------------|-----------------------||-----------------------|-------------|-----------------------||-----------------------|-------------|-----------------------||-----------------------|-------------|-----------------------||-0-0-0-0-0-0-0-0-0--5--|-3--1--3--1--|-0-0-0-0-0-0-0-0-0--5--||-0-0-0-0-0-0-0-0-0--5--|-3--1--3--1--|-0-0-0-0-0-0-0-0-0--5--|
|
| PM-----------------------------------------------------------|-----------------------|-------------|-----------------------||-----------------------|-------------|-----------------------||-----------------------|-------------|-----------------------||-----------------------|-------------|-----------------------||-0-0-0-0-0-0-0-0-0--5--|-3--1--3--1--|-0-0-0-0-0-0-0-0-0--5--||-0-0-0-0-0-0-0-0-0--5--|-3--1--3--1--|-0-0-0-0-0-0-0-0-0--5--|
----||-------------------|--------------------||-------------------|-7tr8--6tr7---------||-------7tr8--6tr7--|--------------------||-------------------|--------------------||-3--1--------------|-------------0------||-3--1--------------|-------------0------|
|
|----||-------------------|--------------------||-------------------|--------------------||-------------------|-7tr8--6tr7---------||-------7tr8--6tr7--|--------------------||-3--1--------------|-------------0------||-3--1--------------|-------------0------|
Q=90 2/4|---------|---------|-----||---------|---------|-----||---------|---------|-----||---------|---------|-----||---------|---------|-----||---------|---------|-----|
|
|---------|---------|-----||---------|---------|-----||---------|---------|-----||---------|---------|-----||---------|---------|-----||---------|---------|-----|
4/4 PM-----------------------------------|-----------------------|-------------||-----------------------|-------------||-----------------------|-------------||-----------------------|-------------||-0-0-0-0-0-0-0-0-0--5--|-3--1--3--1--||-0-0-0-0-0-0-0-0-0--5--|-3--1--3--1--|
|
| PM-----------------------------------|-----------------------|-------------||-----------------------|-------------||-----------------------|-------------||-----------------------|-------------||-0-0-0-0-0-0-0-0-0--5--|-3--1--3--1--||-0-0-0-0-0-0-0-0-0--5--|-3--1--3--1--|
----------------------------||-----------------------|---------------------||-----------------------|---------------------||-----------------------|---------------------||-----------------------|---------------------||-0-0-0-0-0-0-0-0-0--5--|-3--1--8-----7-------||-0-0-0-0-0-0-0-0-0--5--|-3--1--8-----7-------|
|
|----------------------------||-----------------------|---------------------||-----------------------|---------------------||-----------------------|---------------------||-----------------------|-------7tr8--6tr7----||-0-0-0-0-0-0-0-0-0--5--|-3--1----------------||-0-0-0-0-0-0-0-0-0--5--|-3--1----------------|
PM-----------------------------------|-----------------------|-------------||-----------------------|-------------||-----------------------|-------------||-----------------------|-------------||-0-0-0-0-0-0-0-0-0--5--|-3--1--3--1--||-0-0-0-0-0-0-0-0-0--5--|-3--1--3--1--|
|
| PM-----------------------------------|-----------------------|-------------||-----------------------|-------------||-----------------------|-------------||-----------------------|-------------||-0-0-0-0-0-0-0-0-0--5--|-3--1--3--1--||-0-0-0-0-0-0-0-0-0--5--|-3--1--3--1--|
----------------------------||-----------------------|-------------------||-----------------------|-------------------||-----------------------|-------------------||-----------------------|-------7tr8--6tr7--||-0-0-0-0-0-0-0-0-0--5--|-3--1--------------||-0-0-0-0-0-0-0-0-0--5--|-3--1--------------|
|
|----------------------------||-----------------------|-------------------||-----------------------|-------------------||-----------------------|-------------------||-----------------------|-------7tr8--6tr7--||-0-0-0-0-0-0-0-0-0--5--|-3--1--------------||-0-0-0-0-0-0-0-0-0--5--|-3--1--------------|
PM-----------------------------------------------------------|-----------------------|-------------|-----------------------||-----------------------|-------------|-----------------------||-----------------------|-------------|-----------------------||-----------------------|-------------|-----------------------||-0-0-0-0-0-0-0-0-0--5--|-3--1--3--1--|-0-0-0-0-0-0-0-0-0--5--||-0-0-0-0-0-0-0-0-0--5--|-3--1--3--1--|-0-0-0-0-0-0-0-0-0--5--|
|
| PM-----------------------------------------------------------|-----------------------|-------------|-----------------------||-----------------------|-------------|-----------------------||-----------------------|-------------|-----------------------||-----------------------|-------------|-----------------------||-0-0-0-0-0-0-0-0-0--5--|-3--1--3--1--|-0-0-0-0-0-0-0-0-0--5--||-0-0-0-0-0-0-0-0-0--5--|-3--1--3--1--|-0-0-0-0-0-0-0-0-0--5--|
----||-------------------|--------------------*||-------------------|-7tr8--6tr7---------*||-------7tr8--6tr7--|--------------------*||-------------------|--------------------*||-3--1--------------|-------------0------*||-3--1--------------|-------------0------*|
|
|----||-------------------|--------------------*||-------------------|--------------------*||-------------------|-7tr8--6tr7---------*||-------7tr8--6tr7--|--------------------*||-3--1--------------|-------------0------*||-3--1--------------|-------------0------*|
Tablature Legend ---------------- h - hammer-on p - pull-off b - bend pb - pre-bend r - bend release (if no number after the r, then release immediately) /\ - slide into or out of (from/to "nowhere") s - legato slide S - shift slide - natural harmonic [n] - artificial harmonic n(n) - tapped harmonic ~ - vibrato tr - trill T - tap TP - trem. picking PM - palm muting \n/ - tremolo bar dip; n = amount to dip \n - tremolo bar down n/ - tremolo bar up /n\ - tremolo bar inverted dip = - hold bend; also acts as connecting device for hammers/pulls <> - volume swell (louder/softer) x - on rhythm slash represents muted slash o - on rhythm slash represents single note slash Misc Legend ----------- | - bar || - double bar ||o - repeat start o|| - repeat end *| - double bar (ending) : - bar (freetime) $ - Segno & - Coda Tempo markers - = BPM(8/16=s8/s16), where s8 = swing 8ths, s16 = swing 16ths *************************************************************************************** * Generated using Power Tab Editor by Brad Larsen - http://powertab.guitarnetwork.org * ***************************************************************************************
Please rate this tab:
x1.0