If Hope Dies – Roddy Pipers Magic Sunglasses tab

If Hope Dies:
"Roddy Piper's Magic Sunglasses"

By: 13%sulfuricdeth

Drop D tuning

p: palm mute
h: hammer
p: pull off
/: slide
x: don't hit
intro:

----------------------|----------------------|----------------------| x4----------------------|-0h1-5-1-6-5-3-5-3-1--|-0h1-5-1-6-5-3-5-3-1--|
Then:
-------------------------------------|-------------------------------------|-------------------------------------| x2-------------------------------------|000--00-000--0-0-0-000--0-0-6-5-8-6--|000--00-000--0-0-0-000--0-0----------|ppp pp ppp p p p ppp p p
Rhythm plays intro x4 Lead plays:
----------------------------------|----------------------------------|----------------------------------| x2----------------------------------|5h6-6p5-5h6-6p5-5h6-6p5-7p6-6p5---|----------------------------------|
Then:
----------------------------------|----------------------------------|------5-------5-------7-----7/8---|------x-------x-------x-----x/x---| x70-0-0-3-0-0-0-3-0-0-0-5-0-0-5/6---|0-0-0---0-0-0---0-0-0---0-0-------|p p p p p p p p p p p
Little interlude:
-------------|-------------|-------------|-------------|6/5/4/3/2/1/0-------------
-------------------------------------------------------|-------------------------------------------------------|------------------------------------7777666655554444---|------5-----------6-----------7-----xxxxxxxxxxxxxxxx---| x200000-3-0-0-00000-4-0-0-00000-5-0-0-5555444433332222---|00000-3-0-0-00000-4-0-0-00000-5-0-0--------------------|ppppp p p ppppp p p ppppp p p pppppppppppppppp
------------------------------------|------------------------------------|------5-------7-------9-----1212----|------x-------x-------x------x-x----| x40-0-0-3-0-0-0-5-0-0-0-7-0-0-1010----|0-0-0---0-0-0---0-0-0---0-0---------|p p p p p p p p p p p
Then:
-----------------------------------------------------------------|-----------------------------------------------------------------|55557777666688886666888855557777-55557777666688886666888855557777xxxxxxxxxxxxxxxxxxxxxxxxxxxxxxxx-xxxxxxxxxxxxxxxxxxxxxxxxxxxxxxxx33335555444466664444666633335555-33335555444466664444666633335555-----------------------------------------------------------------pppppppppppppppppppppppppppppppp
CONTINUED
--------------------------------|--------------------------------|55557777666688886666888855557777xxxxxxxxxxxxxxxxxxxxxxxxxxxxxxxx33335555444466664444666633335555--------------------------------
----------------------------------------------------------|----------------------------------------------------------|-----------------------------------------5555444433332222-|---------------3h5p3-----3h6p3-----------x----------------|xxxxxxxxxxxxxxx repeat 3 times00-0-00-0-3h5p3-----3h6p3------00-0-00-0-3333222211110000-|00-0-00-0----------------------00-0-00-0------------------|pp pp pp pp pppppppppppppppp
For 4th time:
--------------------------------------------------------------------------|--------------------------------------------------------------------------|-----------------------------------------55554444333322225555444433332222-|---------------3h5p3-----3h6p3-----------xxxxxxxxxxxxxxxxxxxxxxxxxxxxxxxx-|00-0-00-0-3h5p3-----3h6p3------00-0-00-0-33332222111100003333222211110000-|00-0-00-0----------------------00-0-00-0----------------------------------|pp pp pp pp pppppppppppppppppppppppppppppppp
CONTINUE
----------------------|----------------------|5555444433332222543543xxxxxxxxxxxxxxxxxxxxxx3333222211110000321321----------------------pppppppppppppppppppppp
-----------------------------------------------------------------|-----------------------------------------------------------------|-----------------------------------------------------------------|-------------------------------------------------3h5p3-----3h6p3-|0-0000-0-0000-0-0-3-0-0-5-0-6-0-0000-0-0000-3h5p3-----3h6p3------|0-0000-0-0000-----------------0-0000-0-0000----------------------| pppp pppp p p p p p pppp pppp
CONTINUE
----------------------------------------------------------------|----------------------------------------------------------------|--------------------------------------------5555777766668888----|--------------------------------------------xxxxxxxxxxxxxxxx----|0-0000-0-0000-0-0-3-0-0-5-0-6-0-0000-0-0000-3333555544446666----|0-0000-0-0000-----------------0-0000-0-0000---------------------| pppp pppp p p p p p pppp pppp
Breakdown
-------------------------------------------------------------------------|-------------------------------------------------------------------------|-------------------------------------------------------------------------| x4-------------------------------------------------------3h5p3-----3h6p3---|0-00000-0-0-0-0--0-00000-0-0-0-0--0-00000-0-0-0-0-3h5p3-----3h6p3--------|0-00000-0-0-0-0--0-00000-0-0-0-0--0-00000-0-0-0-0------------------------|p ppppp p p p p p ppppp p p p p p ppppp p p p p
Timing changes a little after first 2 times through, easy to figure out.
------------------------------------|------------------------------------|------5-------7-------9-----1212----|------x-------x-------x------x-x----| x80-0-0-3-0-0-0-5-0-0-0-7-0-0-1010----|0-0-0---0-0-0---0-0-0---0-0---------|p p p p p p p p p p p
Again a little time change every like 3 or 4.
----------------------------------------------------------------|----------------------------------------------------------------|7777888877778888555566665555666633334444333344445555666655556666xxxxxxxxxxxxxxxxxxxxxxxxxxxxxxxxxxxxxxxxxxxxxxxxxxxxxxxxxxxxxxxx x25555666655556666333344443333444411112222111122223333444433334444----------------------------------------------------------------pppppppppppppppppppppppppppppppppppppppppppppppppppppppppppppppp
There is a little lead at the end there. Haven't figured it out.
----------------------------------|----------------------------------|----------------------------------| x4----------------------------------|----4-5-----3-4-----2-3-----3-4---|0-0-----000-----0-0-----000-------|p p ppp p p ppp
----- ----- ----- x4 ----- ----- -000- ppp
----------------------|----------------------|----------------------| x4----------------------|-0h1-5-1-6-5-3-5-3-1--|-0h1-5-1-6-5-3-5-3-1--|
-------------------------------------|-------------------------------------|-------------------------------------| x2-------------------------------------|000--00-000--0-0-0-000--0-0-6-5-8-6--|000--00-000--0-0-0-000--0-0----------|ppp pp ppp p p p ppp p p
----------------------------------|----------------------------------|----------------------------------| x2----------------------------------|5h6-6p5-5h6-6p5-5h6-6p5-7p6-6p5---|----------------------------------|
---------------------|---------------------|---------------------|---------------------| Until the End..0--0-0-0-000-0-0-0-0-|0--0-0-0-000-0-0-0-0-|p p p p ppp p p p p
Please rate this tab:
x1.0