Ill Nino – La Liberacion tab

Ill Niño - La Liberacion Of Our Awakening
Source: www.illninoworld.com
Tabbed by: Yoni Drijfhout (oct 26, 2005)
Questions/corrections: webmaster[at]illninoworld[dot]com

TUNED: drop C   (C,G,C,F,A,D)

* = Pinch Harmonic
p = Pull Off
h = Hammer On
. = Palm Mute


INTROguitar 1:-10-----------------------------------|-10------10-------10----10-------10---|--7-------7--------7-----7--------7---|--7-----------------------------------|--------------------------------------|--------------------------------------| 4x
guitar 2-----------------------------|----------------10----10-----|---7-87---7-87-----87----878-|-----------------------------|-----------------------------|-----------------------------| 4x
VERSE
guitar 1:-10-----------------------------------|-10------10-------10----10-------10---|--7-------7--------7-----7--------7---|--7-----------------------------------|--------------------------------------|--------------------------------------| 4x
guitar 2:-----------------------------|----------------10----10-----|---7-87---7-87-----87----878-|-----------------------------|-----------------------------|-----------------------------| 4x
guitar 3-----------------------------|-----------------------------|-----------------------------|-0-00----0-000---000---0-000-|-0-00----0-000---000---0-000-|-0-00----0-000---000---0-000-| 3x . .. . ... ... . ...
-----------------------------|-----------------------------|-----------------------------|-3-3-3-3-3-3-3-3-3-3-3-3-3-3-|-3-3-3-3-3-3-3-3-3-3-3-3-3-3-|-3-3-3-3-3-3-3-3-3-3-3-3-3-3-|
CHORUSguitar 1 2x | 8x | 8x |-------------------------------------|-----|-----|-------------------------------------|-----|-----|-------14-14-14-14-------12-12-12-12-|-----|-----|-0-0----x--x--x--x-0-0----x--x--x--x-|-8-8-|-7-7-|-0-0---12-12-12-12-0-0---10-10-10-10-|-8-8-|-7-7-|-0-0---------------0-0---------------|-8-8-|-7-7-| 2x . .
guitar 2 2x |13x | 3x |13x| 3x |---------------------------------|----|----|---|----|---------------------------------|----|----|---|----|-------10-10-10-10-------9-9-9-9-|-10-|-12-|-9-|-10-|-0-0----x--x--x--x-0-0---x-x-x-x-|--x-|--x-|-x-|--x-|-0-0----8--8--8--8-0-0---7-7-7-7-|--8-|-10-|-7-|--8-|-0-0---------------0-0-----------|----|----|---|----| 2x . .
a 3rd guitar plays this twice, at the last 16 notes:-10----------------------|----13-11-10-13-11-10----|----------------------10-|-------------------------|-------------------------|-------------------------| 2x
Verse
PRE-BRIDGE---------------------------------------------------------|---------------------------------------------------------|---------------------------------------------------------|-5-------------8-8-8-8-8-8-8-8-7-8-7-5-7-5-3-7-0---------|-5-------------8-8-8-8-8-8-8-8-7-8-7-5-7-5-3-7-0---------|-5-------------8-8-8-8-8-8-8-8-7-8-7-5-7-5-3-7-0---------|
BRIDGEguitar 1---------------------------------|---------------------------------|---------------------------------|-0-------8-------5-------0-------|-0-------8-------5-------0-------|-0-------8-------5-------0-------| 8x
--------------------------|--------------------------|--------------------------|-0-0-0--0---0-0--0--0-0-0-|-0-0-0--0---0-0--0--0-0-0-|-0-0-0--0---0-0--0--0-0-0-| . . . . . . . . . .
--------------------------------|--------------------------------|--------------------------------|-0-0-0--0---0-8-7-5-7-5-3-5-3-2-|-0-0-0--0---0-8-7-5-7-5-3-5-3-2-|-0-0-0--0---0-8-7-5-7-5-3-5-3-2-| . . . . . . . . . . . . . .
guitar 2--------------------------------------|--------------------------------------|--------9h10p9-------12--10-9-10-9----|-12--------------------------------10-|--------------------------------------|--------------------------------------| 2x
----------------------------------------|----------------------------------------|--------10h12p10-------12--10-9-10-9----|-------------------------------------10-|-13-------------------------------------|----------------------------------------|
--------------------------------------|--------------------------------------|--------9h10p9-------12--10-9-10-9----|-12--------------------------------10-|--------------------------------------|--------------------------------------| 3x
----------------------------------------|----------------------------------------|--------10h12p10-------12--10-9-10-9----|-------------------------------------10-|-13-------------------------------------|----------------------------------------|
--------------------------------------|--------------------------------------|--------9h10p9-------12--10-9-10-9----|-12--------------------------------10-|--------------------------------------|--------------------------------------|
--------------------------|--------------------------|--------------------------|-0-0-0--0---0-0--0--0-0-0-|-0-0-0--0---0-0--0--0-0-0-|-0-0-0--0---0-0--0--0-0-0-| . . . . . . . . . .
--------------------------------|--------------------------------|--------------------------------|-0-0-0--0---0-8-7-5-7-5-3-5-3-2-|-0-0-0--0---0-8-7-5-7-5-3-5-3-2-|-0-0-0--0---0-8-7-5-7-5-3-5-3-2-| . . . . . . . . . . . . . .
guitar 3 after 4 times:------------------------------------------|------------------------------------------|--------12h14p12-------15--14-12-14-12----|-15------------------------------------14-|------------------------------------------|------------------------------------------| 2x
-------------------------------------------|--------11h13p11---------------------------|-----------------------15--14--12-14-12----|-12-------------------------------------14-|-------------------------------------------|-------------------------------------------|
------------------------------------------|------------------------------------------|--------12h14p12-------15--14-12-14-12----|-15------------------------------------14-|------------------------------------------|------------------------------------------| 3x
-------------------------------------------|--------11h13p11---------------------------|-----------------------15--14--12-14-12----|-12-------------------------------------14-|-------------------------------------------|-------------------------------------------|
------------------------------------------|------------------------------------------|--------12h14p12-------15--14-12-14-12----|-15------------------------------------14-|------------------------------------------|------------------------------------------|
Chorus
OUTRO---------------------------------------------------------|---------------------------------------------------------|---------------------------------------------------------|-5-------------8-8-8-8-8-8-8-8-7-8-7-5-7-5-3-7-0---------|-5-------------8-8-8-8-8-8-8-8-7-8-7-5-7-5-3-7-0---------|-5-------------8-8-8-8-8-8-8-8-7-8-7-5-7-5-3-7-0---------|
For other Ill Niño tabs & more visit http://www.illninoworld.com
Please rate this tab:
x1.0