Illnath - She The Plauge tab

Tabbed by: Zulis309
Email: zulis309 at gmail.com

Intro

0:00-|-----------------------------------------------------------|-|-5-5-5-5-3-3-3-3-------------------------------------------|-|-----------------5-5-5-5-4-4-54----------------------------|-|-------------------------------75---5-4-5-00-7-5-4-4--4--4-|-|----------------------------------33---------------2--2--2-|-|-----------------------------------------------------------|
-|-----------------------------------------------------------|-|-5-5-5-5-3-3-3-3-------------------------------------------|-|-----------------5-5-5-5-4-4-54----------------------------|-|-------------------------------75---5-4-5-00-5-4-5-4--4--4-|-|----------------------------------33---------------2--2--2-|-|-----------------------------------------------------------|
-|----------------------------------------------------------------|-|-5-5-5-5-3-3-3-3------------------------------------------------|-|-----------------5-5-5-5-4-4-54---------------------------------|-|-------------------------------75---5-4-5-00-7-5-4-4--4--4------|-|----------------------------------33---------------2--2--2--5---|-|------------------------------------------------------------3---|
Verse0:29-|----------------------------------------|-------------------------------------------|-|----------------------------------------|-------------------------------------------|-|---9--------------------9---------------|---9--------------------9-----------5-5----|-|-----9--7h9p5--5h7p4------9--7h9p5--5-5-|-----9--7h9p5--5h7p4------9--7h9p5--3-3-|--||-7--------------------7-------------3-3-|-7--------------------7---------------------|-|----------------------------------------|-------------------------------------------|repeat 2 times
Pre chorus 0:48 * = Palm Mute
-|--------------------------------|----------------------------------|-|--------------------------------|----------------------------------|-|4--4--4-4--4--4\3--3--3-3--3--3-|-4--4--4-4--4--4------------------|-|2**2**2*2**2**2\1**1**1*1**1**1-|-2**2**2*2**2**2-5--5--57--7--7---|-|--------------------------------|-----------------3**3**35**5**5---|-|--------------------------------|----------------------------------|
-|--------------------------------|--------------------------------|-|--------------------------------|--------------------------------|-|--------------------------------|--------------------------------|-|9-9-9--9-9-99-9\8-8-8--8-8-88-8-|-9-9-9--9-9-99-9-5--5--57--7--7-|-|7*7*7**7*7*77*7\6*6*6**6*6*66*6-|-7*7*7**7*7*77*7-3**3**35**5**5-|-|--------------------------------|--------------------------------|
Intro again1:07-|-----------------------------------------------------------|-|-5-5-5-5-3-3-3-3-------------------------------------------|-|-----------------5-5-5-5-4-4-54----------------------------|-|-------------------------------75---5-4-5-00-5-4-5-4--4--4-|-|----------------------------------33---------------2--2--2-|-|-----------------------------------------------------------|
-|-----------------------------------------------------------|-|-5-5-5-5-3-3-3-3-------------------------------------------|-|-----------------5-5-5-5-4-4-54----------------------------|-|-------------------------------75---5-4-5-00-7-5-4-4--4--4-|-|----------------------------------33---------------2--2--2-|-|-----------------------------------------------------------|
-|-----------------------------------------------------------|-|-5--5--5-3--3--3-------------------------------------------|-|-----------------5-5-5-5-4-4-54----------------------------|-|-------------------------------75---5-4-5-00-5-4-5-4--4--4-|-|----------------------------------33---------------2--2--2-|-|-----------------------------------------------------------|
-|----------------------------------------------------------------|-|-5-5-5-5-3-3-3-3------------------------------------------------|-|-----------------5-5-5-5-4-4-54---------------------------------|-|-------------------------------75---5-4-5-00-7-5-4-4--4--4--5---|-|----------------------------------33---------------2--2--2--3---|-|----------------------------------------------------------------|
1:47-|---------------------------|-|---------------------------|-|---------------------------|-|----------0230---(repeat)--|-|-22-2--023-------(6 times)-|-|-00-0----------------------|
-|---------------------------------------------------------|-|---------------------------------------------------------|-|---------------------------------------------------------|-|----------0230-----------0230-33-33-----0230--(repeat)---|-|-22-22-023-----55-55--023-----11-11--023------(2 times)--|-|-00-00---------33-33-------------------------------------|
2:19-|-----------|-|-----------|-|-----------|-|-5----232--|-|-3----454--|-|-----------|
Solo 2:24 d = double picking (up AND down)
-|---17--------15-----------------------------------17----------12-|-|--------------------15-13-13-12-10h12p---10----------------------|-|-14--14-14-12----12-------------------------12-14----14-14-12----|-|-----------------------------------------------------------------|-|-----------------------------------------------------------------|-|-----------------------------------------------------------------|
-|-12-15-13-13-12-10h12p10-------|----12d-13d-15d-13d-12d-(repeat)|----------------------(repeat)|-|-------------------------13-12-|-13---------------------(4times)|---13d-15d-17d-15d-13d(4times)|-|-------------------------------|-------------------------(four)-|-14--------------------(four)-|-|-------------------------------|--------------------------------|------------------------------|-|-------------------------------|--------------------------------|------------------------------|-|-------------------------------|--------------------------------|------------------------------|
-|------------------------|------------------------|----12d-13d-15d-13d-12d-|--------|-|----12d-13d-15d-13d-12d-|------------------------|-13---------------------|--------|-|-12---------------------|----14d-16d-17d-16d-14d-|------------------------|12~~~---|-|------------------------|-15---------------------|------------------------|--------|-|------------------------|------------------------|------------------------|--------|-|------------------------|------------------------|------------------------|--------|
-|----12d-13d-15d-13d-12d-(repeat)|-----------------------(repeat)-|-|-13---------------------(2times)|---13d-15d-17d-15d-13d-(2times)-|-|-------------------------(two)--|-14---------------------(two)---|-|--------------------------------|--------------------------------|-|--------------------------------|--------------------------------|-|--------------------------------|--------------------------------|
-|------------------------|------------------------|----12d-13d-15d-13d-12d-|--------|-|----12d-13d-15d-13d-12d-|------------------------|-13---------------------|--------|-|-12---------------------|----14d-16d-17d-16d-14d-|------------------------|12~~~---|-|------------------------|-15---------------------|------------------------|--------|-|------------------------|------------------------|------------------------|--------|-|------------------------|------------------------|------------------------|--------|
-|----12d-13d-15d-13d-12d-|-----------------------|------------------------|-|-13---------------------|---12d-13d-15d-13d-12d-|----13d-15d-17d-15d-13d-|-|------------------------|-12--------------------|-14---------------------|-|------------------------|-----------------------|------------------------|-|------------------------|-----------------------|------------------------|-|------------------------|-----------------------|------------------------|
-|------------------------|-----------------------|-------12-13-15-13-12-----|-|------------------------|-----------------------|----13--------------------|-|----13d-14d-16d-14d-13d-|---14d-16d-17d-16d-14d-|-12-------------------12~-|-|-14---------------------|-15--------------------|--(sweep)-----------------|-|------------------------|-----------------------|--------------------------|-|------------------------|-----------------------|--------------------------|
-|----------------------|-|----12d-13d-15d-13~---|-|-12d------------------|-|----------------------|-|----------------------|-|----------------------|
Vocal kicks in again3:16-|--------------------|-----------------------|-|--------------------|-----------------------|-|--------------------|-----------------------|-|--------------------|-9----5---------7----7-|-|-10-12-10--9-5----9-|-7----3----9-5--5----5-|-|--8-10--8--7-3----7-|-----------7-3---------|
Verse3:36-|-------------------------------------|-------------------------------------|-|-------------------------------------|-------------------------------------|-|---9------------------9--------------|---9------------------9----------5-5-|-|-----9-7h9p5-5h7p4------9-7h9p5--5-5-|-----9-7h9p5-5h7p4------9-7h9p5--3-3-|repeat 4 times-|-7------------------7------------3-3-|-7------------------7----------------|-|-------------------------------------|-------------------------------------|
Pre Chorus 3:55 * = Palm Mute
-|---------------------------------|----------------------------------|-|---------------------------------|----------------------------------|-|-4--4--4-4--4--4\3--3--3-3--3--3-|-4--4--4-4--4--4------------------|-|-2**2**2*2**2**2\1**1**1*1**1**1-|-2**2**2*2**2**2-5--5--57--7--7---|-|---------------------------------|-----------------3**3**35**5**5---|-|---------------------------------|----------------------------------|
-|---------------------------------|--------------------------------|-|---------------------------------|--------------------------------|-|---------------------------------|--------------------------------|-|-9-9-9--9-9-99-9\8-8-8--8-8-88-8-|-9-9-9--9-9-99-9-5--5--57--7--7-|-|-7*7*7**7*7*77*7\6*6*6**6*6*66*6-|-7*7*7**7*7*77*7-3**3**35**5**5-|-|---------------------------------|--------------------------------|
Intro again4:14-|-----------------------------------------------------------|-|-5--5--5-3--3--3-------------------------------------------|-|-----------------5-5-5-5-4-4-54----------------------------|-|-------------------------------75---5-4-5-00-5-4-5-4--4--4-|-|----------------------------------33---------------2--2--2-|-|-----------------------------------------------------------|
-|-----------------------------------------------------------|-|-5-5-5-5-3-3-3-3-------------------------------------------|-|-----------------5-5-5-5-4-4-54----------------------------|-|-------------------------------75---5-4-5-00-7-5-4-4--4--4-|-|----------------------------------33---------------2--2--2-|-|-----------------------------------------------------------|
-|-----------------------------------------------------------|-|-5--5--5-3--3--3-------------------------------------------|-|-----------------5-5-5-5-4-4-54----------------------------|-|-------------------------------75---5-4-5-00-5-4-5-4--4--4-|-|----------------------------------33---------------2--2--2-|-|-----------------------------------------------------------|
-|----------------------------------------------------------------|-|-5-5-5-5-3-3-3-3------------------------------------------------|-|-----------------5-5-5-5-4-4-54---------------------------------|-|-------------------------------75---5-4-5-00-7-5-4-4--4--4--5---|-|----------------------------------33---------------2--2--2--3---|-|----------------------------------------------------------------|
-|----------------|--------|-|----------------|--------|-|----------------|--------|-|----------0230--|--------|-|-22-22-023------|-22--22-|-|-00-00----------|-00--00-|
Tap to rate this tab
 
# A B C D E F G H I J K L M N O P Q R S T U V W X Y Z