Illscarlett – Clearer Now tab

Clearer now
ill scarlet

Any help on fixing this tab up would be greatly appreciated!!
E-mail Magiccat666@hotmail.com to help with fixes!!


1--------------------------------------------------------------------|2--------------------------------------------------------------------|3-----------121212-141414-1212------------121212-141414-1212---------|4--9-11-14--x-x-x--x-x-x--x-x----11-11-12-x-x-x--x-x-x--x-x----------|5--9-11-14--101010-121212-1010---9--9--10-101010-121212-1010---------|6--7-9--12-----------------------------------------------------------|
1----------------------------------------|----------------------------------------|2----------------------------------------|----------------------------------------|3--11------12-----12------14-----12------|-7------11------9------14-----12~-11~---| 0:184--x-(x10)-x-(x5)-x--(x3)-x-(x3)-x--(x2)-|-x-(x3)-x--(x4)-x-(x3)-x-(x4)-x-~-x~~---|5--9-------10-----10------12-----10------|-5------9-------7------12-----10~-9~~---|6----------------------------------------|----------------------------------------|
1------------------------------------------|2------------------------------------------|3--11-------12------12-----14------12------|4--11-(x10)-12-(x4)-12(x2)-14-(x2)-12-(x2)-| x25--9--------10------10-----12------10------|6------------------------------------------|
1-----------------------------------------------------|2-----------------------------------------------------|x23-----------------------------------------------------|4-----------------------------------------------------|5----99101099--5599101099-----99101099---77-99101099--|6--77-----------------------77------------------------|
1------------------------------|2------------------------------|3--4-xx------5-xx--------------|4--4-xx-4-xx-5-xx-5-xx-4-------|5--2-xx-4-xx-3-xx-5-xx-4-(x9)--|6-------2-xx------3-xx-2-------|
1------------------------------------------|2------------------------------------------|3--11-------12------12-----14------12------|4--11-(x10)-12-(x4)-12(x2)-14-(x2)-12-(x2)-| x25--9--------10------10-----12------10------|6------------------------------------------|
1------------------------------------------------------|2------------------------------------------------------| x23------------------------------------------------------|4------------------------------------------------------|5----99101099--5599101099-----99101099---77-99101099---|6--77-----------------------77-------------------------|
1------------------------------|2------------------------------|3--4-xx------5-xx--------------|4--4-xx-4-xx-5-xx-5-xx-4-------|5--2-xx-4-xx-3-xx-5-xx-4-(x9)--|6-------2-xx------3-xx-2-------|
1----------------------------------------------------------------------------------------|2----------------------------------------------------------------------------------------|3-9------9xx-7xx-6xx-7-----9-------9xx-7xx-6------12-------11x-9xx-7xx-9-----12-------14-|4-9(x15)-xxx-xxx-xxx-x(x4)-9-(x15)-xxx-xxx-x-(x8)-12-(x15)-xxx-xxx-xxx-x(x4)-12-(x15)-14-|5-7------7xx-5xx-4xx-5-----7-------7xx-5xx-4------10-------9xx-7xx-5xx-7-----10-------12-|6----------------------------------------------------------------------------------------|
1----------------------------------------|----------------------------------------|2----------------------------------------|----------------------------------------|3--11------12-----12------14-----12------|-7------11------9------14-----12~-11~---|4--x-(x10)-x-(x5)-x--(x3)-x-(x3)-x--(x2)-|-x-(x3)-x--(x4)-x-(x3)-x-(x4)-x-~-x~~---| 1:255--9-------10-----10------12-----10------|-5------9-------7------12-----10~-9~~---|6----------------------------------------|----------------------------------------|
1------------------------------------------|2------------------------------------------|3--11-------12------12-----14------12------|4--11-(x10)-12-(x4)-12(x2)-14-(x2)-12-(x2)-| x25--9--------10------10-----12------10------|6------------------------------------------|
1---------------------------------------------------------|2---------------------------------------------------------| x23---------------------------------------------------------|4---------------------------------------------------------|5----99101099--5599101099-----99101099---77-99101099------|6--77-----------------------77----------------------------|
1-------------------------|2-------------------------|3-4xx----5xx--------------|4-4xx-4x-5xx-5xx-4--------|5-2xx-4x-3xx-5xx-4-(x9)---|6-----2x-----3xx-2--------|
1----------------------------------------------------------------------------------------|2----------------------------------------------------------------------------------------|3-9------9xx-7xx-6xx-7-----9-------9xx-7xx-6------12-------11x-9xx-7xx-9-----12-------14-|4-9(x15)-xxx-xxx-xxx-x(x4)-9-(x15)-xxx-xxx-x-(x8)-12-(x15)-xxx-xxx-xxx-x(x4)-12-(x15)-14-|5-7------7xx-5xx-4xx-5-----7-------7xx-5xx-4------10-------9xx-7xx-5xx-7-----10-------12-|6----------------------------------------------------------------------------------------|
1----------------------- 1--------------------------------------------|2--12-14-12---11-12-11-- 2--15-17-15-14-15-14----12-14-12--11-12-11---|3--11-11-11---11-11-11-- x4 3--14-14-14-14-14-14----11-11-11--11-11-11---|4--9---9--9----9--9--9-- 4--12-12-12-12-12-12-----9--9--9---9--9--9---|5----------------------- 5--------------------------------------------|6----------------------- 6--------------------------------------------|
1------------------ 1---------|2------------------ 2---------|3-4xx-----5xx------ 3---4-----|4-4xx-4xx-5xx-5xx-- x3 4-4-4-----|5-2xx-4xx-3xx-5xx-- 5-4-2-----|6-----2xx-----3xx-- 6-2-------|
Please rate this tab:
x1.0