Immolation - Christs Cage tab

Tune 2 steps down (C)

Key:
  b  - bend
  r  - release bend
  h  - hammer on
  p  - pull off
 < > - pinch harmonic
 / \ - slide
  _ - palm mute
  "  - tremelo pick
  x  - mute


INTRO:(Gtr 1)|----------------------------------------||-12b(13)--r---10h12p10----10-b(11)--r---||-----------------------9----------------||----------------------------------------||----------------------------------------||----------------------------------------| 4x
(Gtr 1)|----------------------------------------||-12b(13)--r---10h12p10----10-b(11)--r---||-----------------------9----------------||----------------------------------------||----------------------------------------||----------------------------------------| 2x
(Gtr 2)|--------------------------------------------------------------||--------------------------------------------------------------||--------------------------------------------------------------||-5b(6)--r---3br-2---------------5b(6)--r---3br----------------||-------------------5-b(6)--r-------------------3--5-b(6)--r---||--------------------------------------------------------------|
(Gtr 1)|----------------------------------------||-12b(13)--r---10h12p10----10-b(11)--r---||-----------------------9----------------||----------------------------------------||----------------------------------------||----------------------------------------|
------------------------------------------| -12b(13)--r---10h12p10----10-b(11)<11>r---| -----------------------9------------------| ------------------------------------------| ------------------------------------------| ------------------------------------------|
----------------------------------------| -12b(13)--r---10h12p10----10-b(11)--r---| -----------------------9----------------| ----------------------------------------| ----------------------------------------| ----------------------------------------|
--------------------------------------12-b(13)-r~-| -<12>b(14)--r---10h12p10----10b(11)-r-------------| -------------------------9------------------------| --------------------------------------------------| --------------------------------------------------| --------------------------------------------------|
------------------------------------12-b(13)-r----| -12b(13)--r---10h12p10----10b(11)-r------------9~-| -----------------------9--------------------------| --------------------------------------------------| --------------------------------------------------| --------------------------------------------------|
--------------------------------------------------| -12b(13)--r---10h12p10----10b(11)-r---------------| -----------------------9------------/15-15~-\8-8~-| --------------------------------------------------| --------------------------------------------------| --------------------------------------------------|
------------12-b(13)-r--------------------------| -12b(13)--r------------10h12p10----10-b(11)--r--| --------------------------------9---------------| ------------------------------------------------| ------------------------------------------------| ------------------------------------------------|
(Gtr 2)|-----------------------------------------------------------||-5-------------------------5-------------------------------||-2-----------3------333----2-----------3-------------------||-2-----------3------333----2-----------3-----------2--2----||-0---------1-1------111----0---------1-1-----------2--2----||--------0--1-1------111-----------0--1-1----000000-0--0----| ___ ____________
-----------------------------------| -5-----------------------------9---| -2-----------3-----------------8---| -2-----------3-----------2--2--6---| -0---------1-1-----------2--2------| --------0--1-1----000000-0--0------| ____________
|----------------------------------------------||------------------------------------------9---||-2---------------------3------------------8---||-2---------------------3------------2--2--6---||-0-----3"-3brp0--------1------------2--2------||----5\----------3-3-0--1--1b-000000-0--0------| 3x _____ ____________
|------------------------------------------||------------------------------------------||-2---------------------3------------------||-2---------------------3------------2--2--||-0-----3"-3brp0--------1------------2--2--||----5\----------3-3-0--1--1b-000000-0--0--| _____ ____________
RIFF A:
|--------------------------| |-----------||-------------11-11-11-----| |-----------||-5-----------10-10-10-----| |-----------||-5------------8--8--8-----| |-----------||-3------------8--8--8-----| |------<2>b-||-3--2222-2p0----------222-| 8x |-0000------| ____ ___ ____
RIFF B:
|---------------| |-----||---------------| |-----||---------------| |-----||---------------| |-----||----------<2>b-| |-----||-3-3-0000------| 7x |-3-3-| ________ ___
RIFF A RIFF B RIFF Ca:
|--------------------------------------------------------------||--------------------------------------------------------------||--------------------------------------------------------------||-------2br-2------------------------2br-2---------------------||-----------2------2h3-------------------2------<2h3>----------||-0--1------0--0-1-----0-3-3b--0--1------0--0-1-------0-<2>-b--| ____ ___ ___ ____ ___ _
------------------------------------------------------------| ------------------------------------------------------------| ------------------------------------------------------------| -------2br-2------------------------2br-2-------------------| -----------2------2h3-------------------2------2h3----------| -0--1------0--0-1-----0-3-3b--0--1------0--0-1-----0-1-<1>b-| ____ ___ ___ ____ ___ ___
----------------------------------------------------------| ----------------------------------------------------------| ----------------------------------------------------------| -------2br-2------------------------2br-2-----------------| -----------2------2h3-------------------2------2h3--------| -0--1------0--0-1-----0-3-3b--0--1------0--0-1-----0-2-b--| ____ ___ ___ ____ ___ _
------------------------------------------------------------| ------------------------------------------------------------| ------------------------------------------------------------| -------2br-2------------------------2br-2-------------------| -----------2------2h3-------------------2------2h3----------| -0--1------0--0-1-----0-3-3b--0--1------0--0-1-----0-1-<1>b-| ____ ___ ___ ____ ___ ___
--------------------------------------------------------------| --------------------------------------------------------------| --------------------------------------------------------------| -------2br-2------------------------2br-2---------------------| -----------2------2h3-------------------2------<2h3>----------| -0--1------0--0-1-----0-3-3b--0--1------0--0-1-------0-<2>-b--| ____ ___ ___ ____ ___ _
RIFF D:
|-------------------||-------------------||-------------------||-------------------||-2--3/5-5/7-7~-----||-0-------------000-| 12x ___
RIFF E:
|-------------------| |-----------------------------||-------------------| |-----------------------------||-------------------| |-----------------------------||-------------------| |-----------------------------||-2--7\5-5\2-2~-----| |-2--7\5-5\2-2~----------<2>b-||-0-------------000-| 3x |-0-------------000-3333------| ___ ________
RIFF B:
|---------------| |-----||---------------| |-----||---------------| |-----||---------------| |-----||----------<2>b-| |-----||-3-3-0000------| 9x |-3-3-| ________ ___
RIFF Cb:
|----------------------------------------------------------||----------------------------------------------------------||----------------------------------------------------------||-------2br-2------------------------2br-2-----------------||-----------2------2h3-------------------2------2h3--------||-0--1------0--0-1-----0-3-3b--0--1------0--0-1-----0-2-b--| ____ ___ ___ ____ ___ _
------------------------------------------------------------| ------------------------------------------------------------| ------------------------------------------------------------| -------2br-2------------------------2br-2-------------------| -----------2------2h3-------------------2------2h3----------| -0--1------0--0-1-----0-3-3b--0--1------0--0-1-----0-1-<1>b-| ____ ___ ___ ____ ___ ___
-----------------------------------------------------------0----| ----------------------------------------------------------------| ----------------------------------------------------------------| -------2br-2------------------------2br-2-----------------------| -----------2------2h3-------------------2------2h3--------------| -0--1------0--0-1-----0-3-3b--0--1------0--0-1-----0-2-b--------| ____ ___ ___ ____ ___ _
RIFF F:(Gtr 1)|--------------------------------------------||--------------------------------------------||--------------------------------------4--2--||-------4"--5"-----------4"--5"--------2--0--||-5"---------------5"------------------2--0--||--------------2~---------------2br-0--------| _
(Gtr 2)|--------------------------------------------||-------7"--8"-----------7"--8"--------------||-7"----x---x------7"----x---x---------4--2--||-x-----4"--5"-----x-----4"--5"--------2--0--||-5"---------------5"------------------2--0--||--------------2~---------------2br-0--------| 3x _
(Gtr 1)|--------------------------------------------||--------------------------------------------||--------------------------------------------||-------4"--5"-----------4"--5"--------------||-5"---------------5"------------------------||--------------2~---------------2~-----2-2-2-|
(Gtr 2)|--------------------------------------------||-------7"--8"-----------7"--8"--------------||-7"----x---x------7"----x---x---------------||-x-----4"--5"-----x-----4"--5"--------------||-5"---------------5"------------------------||--------------2~---------------2~-----2-2-2-|
OUTRO:
|------------------------------||------------------------------||------------------------------||------------------------------||-2--2--2-------2------1-------||-0--0----1-1-1-0----0---2-2-2-|
Tap to rate this tab
 
# A B C D E F G H I J K L M N O P Q R S T U V W X Y Z