Immortal - Triumph tab

Tune Down One Step


Riff A (2x)

|-------------------------------------------------||-------------------------------------------------||-------------------------------------------------||---12-12----12----12-------12-12-----12----12-12-||---10-10----10----10-------10-10-----10----10-10-||-0--0--0--0--0--0--0--0--0--0--0--0--0--0--0--0--|
. . . . . var.1 var.2|------------------------------------------|----------|-------||------------------------------------------|----------|-------||------------------------------------------|----------|-------||---14-14----14----14-------14-14-----14---|-14/1514-|--15"--||---12-12----12----12-------12-12-----12---|-12/1312-|--13"--||-0--0--0--0--0--0--0--0--0--0--0--0--0--0-|-0--------|-------| . . . . .
Riff B (4x) var.1 var.2
|--------------------|------|---------||--------------------|------|---------||--------------------|------|---------||-2-----3-------2--3-|--3"--|--3"-2"--||-2-----3-----2----3-|------|---------||-0--0--1---3------1-|------|---------| .
then Riff A (4x) then Riff B (4x) then Riff A (4x) Riff C (1.75x)
|----------------|-----------------||----------------|-----------------||----------------|-----------------||-5-------5--2-2-|-5---5--2--------||-3-----5----2---|-3---5--2--------||-3---5------0---|-3---5--0-0-0000-| . ....
Riff D
|----0-----0----|---------------|---------------||-----||----0-----0----|---------------|---------------||-----||---------------|-0-------------|-0-------------||-----||-2-----4-----2-|---4-2h4p2-0---|---4-2h4p2-0-4-||--2--||-2-----2-----3-|-------------3-|---------------||--2--||-0-----0-----0-|---------------|---------------||--0--|
Riff E (clean)
|------------------------|------------------------||------------------------|------------------------||------------------4-----|------------------------||------5-----5-------5---|-----5-----5-----5------||----7---7-----7-------7-|---7---7-----7-----7----||--7-------7-----7-------|-7-------7-----7-----7--|
|------------------------|------------------------||------------------------|------------------------||------------------4-----|------------------------||------4-----4-------4---|-----4-----4-----4------||----5---5-----5-------5-|---5---5-----5-----5----||--5-------5-----5-------|-5-------5-----5-----5--|
|------------------------|------------------------||------------------------|------------------------||------------------4-----|------------------------||------5-----5-------5---|-----5-----5-----5------||----7---7-----7-------7-|---7---7-----7-----7----||--7-------7-----7-------|-7-------7-----7-----7--|
|------------------------|------------------------||------------------------|------------------------||------------------4-----|-----------------2------||------4-----4-------4---|-----4-----4-------4----||----5---5-----5-------5-|---5---5-----5-------5--||--5-------5-----5-------|-5-------5-----5--------|
|------------------------|------------------------||------------------------|------------------------||------------------4-----|-----------------4------||------5-----5-------5---|-----5-----5-------5----||----7---7-----7-------7-|---7---7-----7-------7--||--7-------7-----7-------|-7-------7-----7--------|
|------------------------|------------------------||------------------------|------------------------||------------------4-----|-----------------2------||------4-----4-------4---|-----4-----4-------4----||----5---5-----5-------5-|---5---5-----5-------5--||--5-------5-----5-------|-5-------5-----5--------|
|------------------------|------------------------||------------------------|------------------------||------------------4-----|-----------------4------||------5-----5-------5---|-----5-----5-------5----||----7---7-----7-------7-|---7---7-----7-------7--||--7-------7-----7-------|-7-------7-----7--------|
|------------------------|------------------------||------------------------|------------------------||------------------4-----|-----------------2------||------4-----4-------4---|-----4-----4-------4----||----5---5-----5-------5-|---5---5-----5-------5--||--5-------5-----5-------|-5-------5-----5--------|
|------------------------|------------------------||------------------------|------------------------||------------------4-----|------------------------||------5-----5-------5---|-----5-----5-----5------||----7---7-----7-------7-|---7---7-----7-----7----||--8-------8-----8-------|-8-------8-----8-----8--|
|------------------------|------------------------||------------------------|------------------------||------------------------|-----------2------------||------5-----5-----5-----|-----4-------4---4------||----7---7-----7-----7---|---5---5-------5---5----||--7-------7-----7-----7-|-5-------5-----------5--|
|------------------------|------------------------||------------------------|------------------------||------------------------|-----------2------------||------5-----5-----5-----|-----4-------4---4------||----7---7-----7-----7---|---5---5-------5---5----||--7-------7-----7-----7-|-5-------5-----------5--|
Riff F
|--------------------|------------------------||--------------------|------------------------||--------------------|------------------------||-9"----9"----7"--7"-|-9"----9"---7"---5"--7"-||-7"---10"----9"--5"-|-7"---10"---9"---7"--5"-||--------------------|------------------------|
|--------------------|------------------------||--------------------|------------------------||--------------------|------------------------||-9"----9"----7"--7"-|-9"----9"---7"---5"-----||-7"---10"----9"--5"-|-7"---10"---9"-------9"-||--------------------|------------------------|
then Riff A (6x), on the 5th time and 6th time this is also played:
|-12"--10"---9"--8"--7"---8"-||-10"--10"--10"-10"-10"--10"-||----------------------------||----------------------------||----------------------------||----------------------------|
then Riff C (1.75x)
Tap to rate this tab
 
# A B C D E F G H I J K L M N O P Q R S T U V W X Y Z