In Flames - Black And White tab

                              IN FLAMES
                           BLACK AND WHITE

            I know that this is'nt 100% correct, but it gives you an 
            idea how to play it.

            . - palm mute
            , - light palm mute
            / - slide 
      
            Tuning - C G D# A# F A#
            
            
Intro|------------------------------||------------------------------||------------------------------||------------------------------||------------------------10----||-3--0-0--3--0-0--3--0-0--8----||-3--0-0--3--0-0--3--0-0--8----|x4
. . . . . . . . . Verse|------------------------------||------------------------------||------------------------------||------------------------------||------------------------------||------------------------------|
|------------------------------||------------------------------||----------------------7-------||----------------------7-------||-3--0-0--3--0-0--3--0-5-------||-3--0-0--3--0-0--3--0---------|
. . . . . . . .|------------------------------||------------------------------||------------------------------||------------------------------||------------------------------||------------------------------|
Pre-Chorus|-------------------------------||-------------------------------||-------------------------------||-2-2-2-2-2-2-13-13-13-13-13-13-||-0-0-0-0-0-0-11-11-11-11-11-11-||-------------------------------|
, , , , , , , , , , , , , , ,|------------------------------------------||------------------------------------------||------------------------------------------||-4-4-4-4-4-4-4-4-4-4-4-4-2-2-2-2-2-2-2-2--||-2-2-2-2-2-2-2-2-2-2-2-2-0-0-0-0-0-0-0-0--||------------------------------------------|
, , , , , , , , , , , , , , , , , , , , |---------------------------------------------||---------------------------------------------||---------------------------------------------||-2-2-2-2-2-2-2-2-7-7-7-7-7-7-7-7-------------||-0-0-0-0-0-0-0-0-5-5-5-5-5-5-5-5-8p7p5-8p7p5-||---------------------------------------------|x2
, , , , , , , , , , , , , , , , Chorus|-------------------------------------------------||-------------------------------------------------||-------------------------------------------------||-3-3-3-3-3-3-3-3-5-5-5-5-5-5-5-5-7-7-7-7-7-7-7-7-||-1-1-1-1-1-1-1-1-3-3-3-3-3-3-3-3-5-5-5-5-5-5-5-5-||-------------------------------------------------|
|-----------------||-----------------||-----------------||-2-2-2-2-2-2-2-2-||-0-0-0-0-0-0-0-0-||-----------------|x3
|-------------------------------------------------||-------------------------------------------------||-------------------------------------------------||-3-3-3-3-3-3-3-3-5-5-5-5-5-5-5-5-7-7-7-7-7-7-7-7-||-1-1-1-1-1-1-1-1-3-3-3-3-3-3-3-3-5-5-5-5-5-5-5-5-||-------------------------------------------------|
|---------------------------------||---------------------------------||---------------------------------||-7-7-7-7-7-7-7-7-5-5-5-5-5-5-5-5-||-5-5-5-5-5-5-5-5-3-3-3-3-3-3-3-3-||---------------------------------|
Pre-Verse|------------------------------||------------------------------||------------------------------||------------------------------||------------------------10----||-3--0-0--3--0-0--3--0-0--8----||-3--0-0--3--0-0--3--0-0--8----|x4 . . . . . . . . . Verse 2
|------------------------------||------------------------------||------------------------------||------------------------------||------------------------------||------------------------------|
|------------------------------||------------------------------||----------------------7-------||----------------------7-------||-3--0-0--3--0-0--3--0-5-------||-3--0-0--3--0-0--3--0---------|
. . . . . . . .|------------------------------||------------------------------||------------------------------||------------------------------||------------------------------||------------------------------|
Pre-Chorus
|-------------------------------||-------------------------------||-------------------------------||-2-2-2-2-2-2-13-13-13-13-13-13-||-0-0-0-0-0-0-11-11-11-11-11-11-||-------------------------------|
, , , , , , , , , , , , , , ,|------------------------------------------||------------------------------------------||------------------------------------------||-4-4-4-4-4-4-4-4-4-4-4-4-2-2-2-2-2-2-2-2--||-2-2-2-2-2-2-2-2-2-2-2-2-0-0-0-0-0-0-0-0--||------------------------------------------|
, , , , , , , , , , , , , , , , , , , ,|---------------------------------------------||---------------------------------------------||---------------------------------------------||-2-2-2-2-2-2-2-2-7-7-7-7-7-7-7-7-------------||-0-0-0-0-0-0-0-0-5-5-5-5-5-5-5-5-8p7p5-8p7p5-||---------------------------------------------|x2
, , , , , , , , , , , , , , , , Chorus|-------------------------------------------------||-------------------------------------------------||-------------------------------------------------||-3-3-3-3-3-3-3-3-5-5-5-5-5-5-5-5-7-7-7-7-7-7-7-7-||-1-1-1-1-1-1-1-1-3-3-3-3-3-3-3-3-5-5-5-5-5-5-5-5-||-------------------------------------------------|
|-----------------||-----------------||-----------------||-2-2-2-2-2-2-2-2-||-0-0-0-0-0-0-0-0-||-----------------|x3
|-------------------------------------------------||-------------------------------------------------||-------------------------------------------------||-3-3-3-3-3-3-3-3-5-5-5-5-5-5-5-5-7-7-7-7-7-7-7-7-||-1-1-1-1-1-1-1-1-3-3-3-3-3-3-3-3-5-5-5-5-5-5-5-5-||-------------------------------------------------|
|---------------------------------||---------------------------------||---------------------------------||-7-7-7-7-7-7-7-7-5-5-5-5-5-5-5-5-||-5-5-5-5-5-5-5-5-3-3-3-3-3-3-3-3-||---------------------------------|
Bridge|---------------------------------||---------------------------------||---------------------------------||---0----------0----------0-------||-0-0---3-0--0-0---3-0--0-0---3-0-||-0-0---3-0--0-0---3-0--0-0---3-0-|
. . . . . . . . .|---------------||---------------||---------------||---------------||-0-------------||-0-3p2p0-8p6p0-|x2
.|------------------------------------------||------------------------------------------||------------------------------------------||---0----------------------------------3---||-3-0--0-0-0-0-0-0-0-0-0-0-0-0-0-0-0-0-3---||-3-0--0-0-0-0-0-0-0-0-0-0-0-0-0-0-0-0-3---|x2
. . . . . . . . . . . . . . . . .|second time the solo |starts here Solo|------------------------------||------------------------------||-5/9---7-9---10-9--7-7-9------||-----------8-------------10---||------------------------------||------------------------------|
|----------------------------------------||-/16---14-16-17-16--14-11---/19--18-----||----------------------------------------||----------------------------------------||----------------------------------------||----------------------------------------|
Bridge|---------------------------------||---------------------------------||---------------------------------||---0----------0----------0-------||-0-0---3-0--0-0---3-0--0-0---3-0-||-0-0---3-0--0-0---3-0--0-0---3-0-|
. . . . . . . . .|---------------||---------------||---------------||---------------||-0-------------||-0-3p2p0-8p6p0-|x3
.|---------------||---------------||---------------||-0-------------||-0-3p2p0-8p6p0-|
. Chorus|-------------------------------------------------||-------------------------------------------------||-------------------------------------------------||-3-3-3-3-3-3-3-3-5-5-5-5-5-5-5-5-7-7-7-7-7-7-7-7-||-1-1-1-1-1-1-1-1-3-3-3-3-3-3-3-3-5-5-5-5-5-5-5-5-||-------------------------------------------------|
|-----------------||-----------------||-----------------||-2-2-2-2-2-2-2-2-||-0-0-0-0-0-0-0-0-||-----------------|x3
|-------------------------------------------------||-------------------------------------------------||-------------------------------------------------||-3-3-3-3-3-3-3-3-5-5-5-5-5-5-5-5-7-7-7-7-7-7-7-7-||-1-1-1-1-1-1-1-1-3-3-3-3-3-3-3-3-5-5-5-5-5-5-5-5-||-------------------------------------------------|
|---------------------------------||---------------------------------||---------------------------------||-7-7-7-7-7-7-7-7-5-5-5-5-5-5-5-5-||-5-5-5-5-5-5-5-5-3-3-3-3-3-3-3-3-||---------------------------------|
Outro|------------------------------||------------------------------||------------------------------||------------------------------||------------------------10----||-3--0-0--3--0-0--3--0-0--8----||-3--0-0--3--0-0--3--0-0--8----|x4
. . . . . . . . .|-------------------------||-------------------------||-------------------------||-----------------4-4-4-4-||-2-2-2-2-2-2-2-2-2-2-2-2-||-3-3-3-3-3-3-3-3---------| . . . . . . . . . . . .
Tap to rate this tab
 
# A B C D E F G H I J K L M N O P Q R S T U V W X Y Z