In Flames - Another Day In Quicksand tab

ANOTHER DAY IN QUICKSAND <---> IN FLAMES
Solo.
I looked everywhere for the solo and couldn't find it so I took the time to tab it out. 
hope it suites your In Flames guitar playing needs! Enjoy!

Tuning: C standard

Tip: Try starting the solo usuing your bridge pickup first so you can get the dirty, 
low-end and the pinch harmonics where needed.

|---------------------------------------------------------------------||---------------------------------------------------------------------||---------------------------------------------------------------------||---------------------------------------------------------------------||------------------5-7---7-8-10-5-------------------------------------||-1---1-3-5-7---7-8-----------------1---1-3-5-7---7-8-10-8---8-10-7-8-|
|----------------------------------------------------------------||----------------------------------------------------------------||-12-10-9------------------12b(14b12)b(14)---12-10-9-------------||---------12-10h12p10-9------------------------------12-10-12-14-||-----------------------12---------------------------------------||----------------------------------------------------------------|
|----------------------------------------------------||-----------------------------------13-12h13p12------||---17--16-14\12-14---14----------12-----------14-12-||-14--14------------------12-14-15-------------------||-----------------------15---------------------------||----------------------------------------------------|
I suggest at this point to switch to your neck pickup if you're not already on it.
|-------------------------------------------------17-15-13-||-13---13-15-17-12---12-13-15-13--13-15--15-17--17---------||-------------------------------12-----12-----14-----------||----------------------------------------------------------||----------------------------------------------------------||----------------------------------------------------------|
|---------12-15-20-19-17---------------15-19-15-20-15-19-15-----||-------13--------------20-18-17-----15--------------------15---||-----12---------------------------16------------------------16-||---14---------------------------17-----------------------------||-15------------------------------------------------------------||---------------------------------------------------------------|
|--------8-12-/20-19-20-17---19-20-22b(24)-22p20-22---20-19-----||------10-------------------------------------------------------||-----9---------------------------------------------------------||---10----------------------------------------------------------||-12------------------------------------------------------------||---------------------------------------------------------------|
|-20-19-17--------------------------------------------------------------||---------20-18-17-20-18-17---------------------------------------------||--------------------------19-17-16-19-17-16----------------------------||-------------------------------------------19-17-15-19-17-15-----------||------------------------------------------------------------19-17-14-15||-----------------------------------------------------------------------|
|---------12-15--13--12------------------20-19-20-17--||-------13--------------15--13--12--13----------------||-----12------------------------------14--------------||---14------------------------------------------------||-15--------------------------------------------------||-----------------------------------------------------|
Once you hit this part of the solo I suggest switching BACK to your bridge pickup. (It's up to you, of course)
|--------------------------------------------------||-17-17h20p17--17----------------------------------||------------19--19-17-19p17--17--------------17---||---------------------------19--19-18-17-18-19--19-||--------------------------------------------------||--------------------------------------------------|
|-----------------------------------------||-----------------------------------------||-----------------------------------------||-17---15-14-12---9-10---14-12-10---9-7-5-||-----------------------------------------||-----------------------------------------|
I'm about %99.37 sure that it's right. Any problems, complaints or comments e-mail me fictitiousfable@hotmail.com
Tap to rate this tab
 
# A B C D E F G H I J K L M N O P Q R S T U V W X Y Z