In Flames - Jotun tab

BAND:In Flames
SONG:Jotun
ALBUM:Whoracle

Tuning: C (C,F,A#,D#,G,C)


Riff A1|---------------------~~------------------| |----------------/12--10-------h--p-------| |-------11--9-------------12-11-12-11-----| |-----9-------------------------------14--| |---7-------------------------------------| |-----------------------------------------|
| ||-----------------------------------------||-----7-----------------------------------||--9-----------7------4-5-4-------2-------||----9-----5/7------2---------5-0---------||-7------3--------------------------------||-----------------------------------------|
| . . ||-----------------------------------------||-----7-----------------------------------||--9-----------7-----------hp-------------||----9-------7--------5-7-575-----7-------||-7-------10--------7---------7-5---------||--------8--------5-----------------------| . . .
|-----------------------------------------| |-----------------------------------------| |-----------------------------------------| |--12-10\9-9-9-7/9-10----9----------------| |---------------------12---10/12-9--------| |----------------------------------10-----|
| || ||--------------------------5--------------||------7-------3-----------5--------------||---9-------5--------------7--------------||-----9-------5----------7----------------||--7-------3-----------5------------------||-----------------------------------------|
| . . . let ring || ||--------------------------5--------------||------7-------------------5--------------||---9-----------7----------7--------------||-----9--------7---------7----------------||--7--------10---------5------------------||----------8------------------------------| . . . let ring
Riff A2|-----------------------------------------| |--------------/12--10-(10)/15-13--15-----||-------11-9------------------------------| |-----9-----------------------------------||---7-------------------------------------| |-----------------------------------------|
| ||-----------------------------------------||-----7-----------------------------------||--9-----------7------4-5-4-------2-------||----9-----5/7------2---------5-0---------||-7------3--------------------------------||-----------------------------------------|
| . . ||-----------------------------------------||-----7-----------------------------------||--9-----------7-----------hp-------------||----9-------7--------5-7-575-----7-------||-7-------10--------7---------7-5---------||--------8--------5-----------------------|
. . . |--------~~-------------------------------| |--13\12-12---10/12-13--------------------||----------------------14-16-12-14--------| |----------------------------------16-12--||-----------------------------------------| |-----------------------------------------|
| ||-----------------------------------------||--------~~-------------------------------||--14\12-12---11/12-14-11-12----11--------| |----------------------------14----12-----| |-------------------------------------14--| |-----------------------------------------|
| ||--------------------------5--------------||------7-------3-----------5--------------||---9-------5--------------7--------------||-----9-------5----------7----------------||--7-------3-----------5------------------||-----------------------------------------|
| . . . let ring | |--------------------------5--------------||------7-------------------5--------------||---9----------7-----------7--------------||-----9-------7----------7----------------||--7--------10---------5------------------||----------8------------------------------| . . . let ring
Riff B|--------------------------------------------------------||--------------------------------------------------------| |12-12-12-11----------------------/12-11-----------------||------------12--10/12--14-14--14--------12-----------~~~||-------------------------------------------12-10-9-10---||--------------------------------------------------------|
| ||--------------------------------------------------------||--------------------------------------------------------||12-------11----------------------/12-11-----------------||------------12------------~~------------12-----------~~~||----------------12/14--15-15---------------12-10----7---||------------------------------------------------10------|
| ||--------------------------------------------------------||--------------------------------------------------------||--------------------------------------------------------||-2-2-2-5---7--9-9-9-10--10-10--10-10-10-12-12-12-2-(2)--||-2-2-2-5---7--9-9-9-10--10-10--10-10-10-12-12-12-2-(2)--||-0-0-0-3-0-5--7-7-7--8---8--8---8--8--8-10-10-10-0-(0)--|
| ||--------------------------------------------------------||--------------------------------------------------------||--------------------------------------------------------||-------------------------------------------------2-(2)--||-------------------------------------------------2-(2)--||-0-0-0-2-2-0-3-0-5-0-8-8--------8--8--8-10-10--0-0-(0)--| * *(0 might be a 7)
Riff C|----------------------------------~---h-p---||------------~~----h--p---------10-8--7-8-7--||--9---9--12-11---9-11-9-8---8---------------||----9---------------------9-----------------||--------------------------------------------||--------------------------------------------|
| | |--------------------------------------------|
|--------------------------------------------||--------------------------------------------||--9------5----7--------------7----9---------||--7------7----7------9-------9----9---------||--0-0000---00---000--7--7777---77---7777----| .... .. ... .... .. ....
|------------~~----hb+r----------------------||------------10-12-12--10----------h--p------||--9---9-/12--------------11-12--11-12-11----||----9------------------------------------12-||--------------------------------------------||--------------------------------------------|
| | |--------------------------------------------|
|--------------------------------------------||--------------------------------------------||--2---2--5------7-------/10-10-10---9--999--||--2---2--5------7-------/10-10-10---9--999--||--0-0-0--3--0---5---0---/-8--8--8---7--777--|
Riff D|-----------------------------------------------------------||-----------------------------------------------------------||--9\-------------------------------------------------------||-----------------------------------------------------------||-----------------------------------------------------------||-----------------------------------------------------------|
| ||-----------------------------------------------------------||--8\-------------------------------------------------------||-----------------------------------------------------------||-----------------------------------------------------------||-----------------------------------------------------------||-----------------------------------------------------------|
| ||-----------------------------------------------------------||-----------------------------------------------------------||-----------------------------------------------------------||---------99999--99999999--2-2-2-/5---/7----10-10-9----9----||--22222--77777--77777777--2-2-2-/5---/7----10-10-9----9----||--00000-------------------0-0-0-/3-0-/5--0--8--8-7----7----|
| .... ..... ........ || ||-----------------------------------------------------------||-----------------------------------------------------------||-----------------------------------------------------------||---------99999--99999999--2---2-/5---/7----10-10-9----9----||--22222--77777--77777777--2---2-/5---/7----10-10-9----9----||--00000-------------------0-0-0-/3-0-/5--0--8--8-7----7----| .... ..... ........
|-----------------------------------------------------------||-----------------------------------------------------------||-----------------------------------------------------------||---------99999--99999999--2-2-2-/5---/7----10-10-9----9----||--22222--77777--77777777--2-2-2-/5---/7----10-10-9----9----||--00000-------------------0-0-0-/3-0-/5--0--8--8-7----7----|
| .... ..... ........ || ||-----------------------------------------------------------||-----------------------------------------------------------||-----------------------------------------------------------||---------99999--99999999--2---2-/5---/7----10-10-9----9----||--22222--77777--77777777--2---2-/5---/7----10-10-9----9----||--00000-------------------0-0-0-/3-0-/5--0--8--8-7----7----| .... ..... ........
Repeat Riff C Riff E
|--------------------------------------------------------------||---------------------------------------~-------------~--------||--------~-------------~----------4-4-4-2-2-2--/5-5-5-4-4-4-4--||-/5-5-5-4-----2-/4-4-/5--2-2-2-4-------------4----------------||-----------/5-------------------------------------------------||--------------------------------------------------------------|
| | |--------------------------------------------------------------||--------------------------------------------------------------||--------~-------------~----------------~-------------~--------||-/5-5-5-4-----2-/4-4-/5--2-2-2-4-5-5-5-4-4-4-4/7-7-7-5-5-5-5--||-----------/5-------------------------------------------------||--------------------------------------------------------------|
| ||--------------------------------------------------------------||--------------------------------------------------------------||---------------7-7-7----------------7-7-7--5-5-5--9-9-9-------||--9-9-9-9-9-9--7-7-7--7-7-7--5-5-5--7-7-7--5-5-5--9-9-9-------||--7-7-7-9-9-9--5-5-5--7-7-7--5-5-5--5-5-5--3-3-3--7-7-7-------||--0-0-0-7-7-7---------5-5-5--3-3-3----------------------------|
|--------------------------------------------------------------||---------------------------------------~----------------------||--------~-------------~----------4-4-4-2-2-2------------------||-/5-5-5-4-----2-/4-4-/5--2-2-2-4-------------4/4-4-4-5-5-5-5--||-----------/5-------------------------------------------------||--------------------------------------------------------------|
| ||--------------------------------------------------------------||--------------------------------------------------------------||--------~-------------~----------------~----------------------||-/5-5-5-4-----2-/4-4-/5--2-2-2-4-5-5-5-4-4-4------------------||-----------/5--------------------------------5/5-5-5-7-7-7-7--||--------------------------------------------------------------|
| ||--------------------------------------------------------------||--------------------------------------------------------------||---------------7-7-7----------------7-7-7--5-5-5--9-9-9-------||--9-9-9-9-9-9--7-7-7--7-7-7--5-5-5--7-7-7--5-5-5--9-9-9-------||--7-7-7-9-9-9--5-5-5--7-7-7--5-5-5--5-5-5--3-3-3--7-7-7-------||--0-0-0-7-7-7---------5-5-5--3-3-3----------------------------|
Riff F
|--------------------------------------------------------------------||--------------------------------------------------------------------||--------------------------------------------------------------55-7--||---------------------5-4-0----2----------------4---5----------55-7--| |--7---7-----5---7---------------3-2--7---7--------------------33-5--||----0---0-0---0----0--------0----------0---0-0---0---0-0-0-0--------|
| . . . . . . . . . . . . . . || ||--------------------------------------------------------------------||--------------------------------------------------------------------||--------------------------------------------------------------55-7--||--9---9---------9----5-4-0----2------9---9--------------------55-7--| |--7---7-----5---7---------------3-2--7---7-----5---7----------33-5--||----0---0-0---0----0--------0----------0---0-0---0---0-0-0-0--------| . . . . . . . . . . . . . . *2*****2
|--------------------------------------------------------------------||--------------------------------------------------------------------||--------------------------------------------------------------55-7--||---------------------5-4-0----2-------------------------------55-7--| |--7---7-----5---7---------------3-2--7---7-----5---7----------33-5--||----0---0-0---0----0--------0----------0---0-0---0---0-0-0-0--------|
| . . . . . . . . . . . . . . || ||--------------------------------------------------------------------||--------------------------------------------------------------------||--------------------------------------------------------------55-7--||---------------------5-4-0----2-------------------------------55-7--| |--7---7-----5---7---------------3-2--7---7-----5---7----------33-5--||----0---0-0---0----0--------0----------0---0-0---0---0-0-0-0--------| . . . . . . . . . . . . . .
Fill 1|--------------------------------------------------------------------||--------------------------------------------------------------------||---------4-5----7-5-4----------------------------------4----4-5-4---||-------------7--------7----------------------------------7-------7-5||--------------------------------------------------------------------||--------------------------------------------------------------------|
bend/releaseRiff gradually |-----------------------------------~--------------b~~--------------||---------------~--------/10----(5)\8------8-10--10-11-10----8\-----||--~--------7--\6----7----------------------------------------------||-/5--/8------------------------------------------------------------||-------------------------------------------------------------------||-------------------------------------------------------------------|
| b~~ ||-----------------------------------~------6--8---8-10--8----6\-----||----------------~-------/10----(5)\8-------------------------------||--~-------/7---\6---7----------------------------------------------||-/5--/8------------------------------------------------------------||-------------------------------------------------------------------||-------------------------------------------------------------------|
| ||-------------------------------------------------------------------||-------------------------------------------------------------------||-------------------------------------------------------------------||--5---5-----3---5-----------------5---5-----3---5------------------||------------------5-5-5-5-5-5-5-5-----------------5-5-5-5-----5-5--||----3---3-3---3---3-3-3-3-3-3-3-3---3---3-3---3---3-3-3-3-333-3-3--| . . . . . . . . . . . . . . . . . . . . ... . .
|----------------------------------~-----------------~--------------||----------------~--------/10------8-----6--6--/8----6--------------||--~--------/7---6----7---------------------------------------------||-/5-5--8-----------------------------------------------------------||-------------------------------------------------------------------||-------------------------------------------------------------------|
| | |----------------------------------~--------------------------------||----------------~--------/10------8-----6--6--/8----~--------------||--~--------/7---6----7------------------------------7--------------||--5-5-/8-----------------------------------------------------------||-------------------------------------------------------------------||-------------------------------------------------------------------|
| ||-------------------------------------------------------------------||-------------------------------------------------------------------||-------------------------------------------------------------------||--5---5-----3---5-----------------5---5-----3---5------------------||------------------5-5-5-5-5-5-5-5-----------------5-5-5-5-----5-5--||----3---3-3---3---3-3-3-3-3-3-3-3---3---3-3---3---3-3-3-3-333-3-3--| . . . . . . . . . . . . . . . . . . . . ... . .
Riff H
|---------------------------------------------------------------------||-----------------------------------------------------~~--------------||-/12---11--------~---12--11----------9---99----11---/12--------------||------------12--\9---------------------------------------------------||---------------------------------------------------------------------||---------------------------------------------------------------------|
| ||-----------------------------------------------------~~--------------||--------------------/12--10----------8---88----10---/12--------------||-/12---11--------~---------------------------------------------------||------------12--\9---------------------------------------------------||---------------------------------------------------------------------||---------------------------------------------------------------------|
| ||---------------------------------------------------------------------||---------------------------------------------------------------------||---------------------------------------------------------------------||---------------------5-4-0----2--------------------------------------||--7---7-----5---7---------------3-2--7---7-----5---7-7-7-7-7-7-7-7-7-||----0---0-0---0----0--------0----------0---0-0---0---0-0-0-0-0-0-0-0-| . . . . . . . . . . . . . . . . . .
~~|-------------------------------------------------/10----/12----------||-----------------------12--10---------12---10------------------------||-/12-12--11--------~-------------------------------------------------||--------------12--\9-------------------------------------------------||---------------------------------------------------------------------||---------------------------------------------------------------------|
| ||---------------------------------------------------------------------||-----------------------12--10--------------------/12----h~~----------||-/12-12--11--------~------------------12---11---------11-12----------||--------------12--\9-------------------------------------------------||---------------------------------------------------------------------||---------------------------------------------------------------------|
| ||---------------------------------------------------------------------||---------------------------------------------------------------------||---------------------------------------------------------------------||---------------------5-4-0----2--------------------------------------||--7---7-----5---7---------------3-2--7---7-----5---7-7-7-7-7-7-7-7-7-||----0---0-0---0----0--------0----------0---0-0---0---0-0-0-0-0-0-0-0-| . . . . . . . . . . . . . . . . . .
Repeat : riff 3 : 2x riff 4 : 2x riff 3 : 2x riff 5 : 4x
Riff I|----------------------------------------------------------------------||----------------------------------------------------------------------||--9---9---9---9----7---7---7---7----7---7---7---7----7---7---7---7----||----9---9---9---9----9---9---9---9----9---9---9---9----7---7---7---7--||----------------------------------------------------------------------||----------------------------------------------------------------------|
| ||----------------------------------------------------------------------||----------------------------------------------------------------------||----------------------------------------------------------------------||-----------------------------------------------------7777777777777777-||--22222------------55555------------99999------------5555555555555555-||--00000-000-000-00-33333-333-333-33-77777-777-777-77------------------| ..... ... ... .. ..... ... ... .. ..... ... ... .. ................
|-----------------------------------------------------------------------||-----------------------------------------------------------------------||--9---9---9---9----7---7---7---7----7---7---7---7----9----9-11-12------||----9---9---9---9----9---9---9---9----9---9---9---9----10--------------||-----------------------------------------------------------------------||-----------------------------------------------------------------------|
| ||-----------------------------------------------------------------------||-----------------------------------------------------------------------||-----------------------------------------------------------------------||-----------------------------------------------------10-(10)---10-(10)-||--22222------------55555------------99999------------10-(10)---10-(10)-||--00000-000-000-00-33333-333-333-33-77777-777-777-77--8--(8)----8--(8)-| ..... ... ... .. ..... ... ... .. ..... ... ... ..
|-----------------------------------------||-----7-------------------h-p-------------||--9-----------7-----5-7-5-7-5-4-----7----||----9-----5/7-------------------7-5------||-7------3--------0-7---------------------||-----------------------------------------|
| ||-----------------------------------------||-----7-----------------------------------||--9-----------7-----4-5-4-----------2----||----9-----5/7------2------------5-0------||-7------3--------0-----------------------||-----------------------------------------|====
Tap to rate this tab
 
# A B C D E F G H I J K L M N O P Q R S T U V W X Y Z