In Flames - Food For The Gods tab

BAND:In Flames
SONG:Food for the Gods
ALBUM:Whoracle


Tuning = C (C,F,A#,D#,G,C)

Riff A|----------------------------------------------------||----------------------------------------------------||----------------------------------------------------||--------2---------------2--------5---4-------5---7--||--------------2-----5------3-3-3---3---0-0-0---0----||--0-0-0---0-0---0-0---0-----------------------------|
| ||----------------------------------------------------||----------------------------------------------------||---------------------------5-----------2------------||--2-2-2--------------------5-----------2------------||--2-2-2--------------------3-----------0------------||--0-0-0---------------------------------------------|
|----------------------------------------------------||----------------------------------------------------||---------------------------------------4-2-0-2-4-5--||--------2---------------2--------5---4--------------||--------------2-----5------3-3-3---3----------------||--0-0-0---0-0---0-0---0-----------------------------|
|
|----------------------------------------------------||----------------------------------------------------||---------------------------5---------------------2--||--2-2-2--------------------5-----------5-4-2-4-5----||--2-2-2--------------------3------------------------||--0-0-0---------------------------------------------|
Riff B (Both Gtrs play this, but GTR II has slight flanger on)|----------------------------------------------------||----------------------------------------------------||:---------------------------------------------------||:-------2---------------2--------5---4-------5---7--||--------------2-----5------3-3-3---3---0-0-0---0----||--0-0-0---0-0---0-0---0-----------------------------|
|----------------------------------------------------||----------------------------------------------------||-------------------------------------------------2-:||--------2---------------2--------5---4-5-4-2-4-5---:||--------------2-----5------3-3-3---3----------------||--0-0-0---0-0---0-0---0-----------------------------|
Riff C (Play 4 Times)|-------------------------------------||-------------------------------------||:------------------------------------||:-5"--4"--2"--0"--4"4"5"4"--4"---2"--||-------------------------------------||-------------------------------------|
| ||-------------------------------------||-------------------------------------||:-----------------------2"--2"--/4"--||:-5"--4"--2"--0"--4"4"5"-------------||-------------------------------------||-------------------------------------|
|-------------------------------------||-------------------------------------||------------------------------------:||--5"--4"--2"--0"--4"4"5"4"--4"---2"-:||-------------------------------------||-------------------------------------|
| ||-------------------------------------||-------------------------------------||------------------------------------:||--5"--4"--2"--0"--4"4"5"4"--4"---4"-:||-------------------------------------||-------------------------------------|Riff D|------------------------------------------------------------||------------------------------------------------------------||------------------------2------2~--4~-5-4-2-----------------||-2~~----2-4-5-4~~---4-5---5~~---------.-.-.-5-4-2--1~-2~-4~-||--------------------------------------------.-.-.-----------||------------------------------------------------------------|
| ||------------------------------------------------------------||------------------------------------------------------------||------------------------2------2~--4~-5-4-2-----------------||-2~~----2-4-5-4~~---4-5---5~~---------------5-4-2--1~-2~-4~-||--------------------------------------------.-.-.-----------||------------------------------------------------------------|
Riff E.1|--------------------------------------------||--------------------------------------------||----------------------------------0"-2"-4"--||-0---4-2"----2"-------0---4-2"--------------||---2------------4"------2-------------------||--------------------------------------------|
|--------------------------------------------||--------------------------------------------||----------------------------------4"-2"-0"--||-0---4-2"----2"-------0---4-2"--------------||---2------------4"------2-------------------||--------------------------------------------|
|--------------------------------------------||--------------------------------------------||----------------------------------0"-2"-4"--||-0---4-2"----2"-------0---4-2"--------------||---2------------4"------2-------------------||--------------------------------------------|
|--------------------------------------------||--------------------------------------------||--------------------------------------------||-0---4-2"----2"-------0---4-2"--------------||---2------------4"------2---------5~---4~---||--------------------------------------------|
Riff F|----------------------------------------------------||----------------------------------------------------||----------------------------------------------------||--------2---------------2--------5---4-------5---7--||--------------2-----5------3-3-3---3---0-0-0---0----||--0-0-0---0-0---0-0---0-----------------------------|
| ||----------------------------------------------------||----------------------------------------------------||----------------------------------------------------||--------2---------------2--------5---4-------5---7--||--------------2-----5------3-3-3---3---0-0-0---0----||--0-0-0---0-0---0-0---0-----------------------------|
|----------------------------------------------------||----------------------------------------------------||---------------------------------4---2-4-2-0-2-4-5--||--------9-----7-----4---5---------------------------||---------------------------3-3-3---3----------------||--0-0-0---0-0---0-0---0-----------------------------|
| ||----------------------------------------------------||----------------------------------------------------||-------------------------------------------------2--||--------2---------------2--------5---4-5-4-2-4-5----||--------------2-----5------3-3-3---3----------------||--0-0-0---0-0---0-0---0-----------------------------|
Repeat Riff C Repeat Riff D
Riff E.2|--------------------------------------------||--------------------------------------------||----------------------------------0"-2"-4"--||-0---4-2"----2"-------0---4-2"--------------||---2------------4"------2-------------------||--------------------------------------------|
|--------------------------------------------||--------------------------------------------||----------------------------------4"-2"-0"--||-0---4-2"----2"-------0---4-2"--------------||---2------------4"------2-------------------||--------------------------------------------|
|--------------------------------------------||--------------------------------------------||----------------------------------0"-2"-4"--||-0---4-2"----2"-------0---4-2"--------------||---2------------4"------2-------------------||--------------------------------------------|
|--------------------------------------------||--------------------------------------------||--------------------------------------------||-0---4-2"----2"-------0---4-2"---------2~---||---2------------4"------2---------5~--------||--------------------------------------------|
Riff G|-----------------------------------------------------||-----------------------------------------------------||-----------------------------------------------------||---------------h-----p-p-----------------p-----h-p---||--------7-----0-3---3-2-0--------7-----10-9---7-9-5--||--0-0-0---0-0-----0--------0-0-0---0-0------0--------|
| ||-----------------------------------------------------||-----------------------------------------------------||-----------------------------------------------------||--2--------------------------------------------------||--2--------------------------------------------------||--0--------------------------------------------------|
|-----------------------------------------------------||-----------------------------------------------------||-----------------------------------------------------||---------------h-----p-p---------------5--7--8-------||--------7-----0-3---3-2-0--2-2-2-------5--7--8-------||--0-0-0---0-0-----0--------0-0-0-------3--5--6-------|
| ||-----------------------------------------------------||-----------------------------------------------------||-----------------------------------------------------||--2-2-2--------------------2-2-2-------5--7--8-------||--2-2-2--------------------2-2-2-------5--7--8-------||--0-0-0--------------------0-0-0-------3--5--6-------|
Riff H|-----------------------------------------------------||-----------------------------------------------------||-----------------------------------------------------||---------------h-----p-p-----------------p-----h-p---||--------7-----0-3---3-2-0--------7-----10-9---7-9-5--||--0-0-0---0-0-----0--------0-0-0---0-0------0--------|
| ||-----------------------------------------------------||-----------------------------------------------------||-----------------------------------------p-----h-p---||--------5------h-----p-p---------5------9-7---5-7-4--||--------------0-3---3-2-0----------------------------||--0-0-0---0-0-----0--------0-0-0---0-0------0--------|
|-----------------------------------------------------||-----------------------------------------------------||-----------------------------------------------------||---------------h-----p-p---------------5--7--8-------||--------7-----0-3---3-2-0--------7-----5--7--8-------||--0-0-0---0-0-----0--------0-0-0---0-0-3--5--6-------|
| ||-----------------------------------------------------||-----------------------------------------------------||-----------------------------------------------------||--------5------h-----p-p---------5-----5--7--8-------||--------------0-3---3-2-0--------------5--7--8-------||--0-0-0---0-0-----0--------0-0-0---0-0-3--5--6-------|
Solo Repeat Riff D Repeat Riff E Repeat Riff F
|-----||-----||-----||-2---||-2---||-0---|
| ||-----||-----||-----||-2---||-2---||-0---|
====
Tap to rate this tab
 
# A B C D E F G H I J K L M N O P Q R S T U V W X Y Z