In Flames – My Sweet Shadow tab

This song is played in Dropped A#

when you see a a letter then number (A1 for e.g.)
then that is the riff name

A1-------------------------------------|-------------------------------------|------3----5---------------5---------|0-----3----3----10----5--3-5---------|0-----1----3----8-----5--3-3---------|0---------------8-----5--3-----------|
A1
B1----------------------------------------------------------|----------------------------------------------------------|----------------------------------------------------------|-323------------32-------x-x-x-x-x-x-x-x-x-x-x-x-x-x-x----|------xxx-01-x-----x-0---8-8-8-8-8-8-8-5-5-5-5-5-5-5-5----|------000----0-----0--8--8-8-8-8-8-8-8-5-5-5-5-5-5-5-5----|
B2----------------------------------------------------------|----------------------------------------------------------|----------------------------------------x-x-x-x-x-x-x-----|-323------------32----------------------5-5-5-5-5-5-5-----|------xxx-01-x-----x-0--x-x-x-x-x-x-x-3-3-3-3-3-3-3-3-----|------000----0-----0--3-3-3-3-3-3-3-3---------------------|
B1 B2
C1----------------------------------------------------------|----------------------------------------------------------|----------------------------------------------------------|-x-xx-xx-xx-xx-xx-x-xx-xx--10-10--------------------------|-0-00-00-00-00-00-0-00-00--8--8---------------------------|-0-00-00-00-00-00-0-00-00--8--8---------------------------|
C1
D1----------------------------------------------------------|----------------------------------------------------------|-----------------------0-----------5----------------------|---0-2-3-0-(0)---0-2-3----3-2-0-2-3-----------------------|----------------------------------------------------------|-0-------------0------------------------------------------|
D2----------------------------------------------------------|----------------------------------------------------------|----------------------------------------------------------|---0-2-3-0-(0)---0-2-3-2--0------0------------------------|-----------------------------3-0--------------------------|-0-------------0------------------------------------------|
D1 D2
E1----------------------------------------------------------|----------------------------------------------------------|----------------------------------------------------------|-x-x-x-x-x-x--x-x-x--x------------------------------------|-5-5-5-5-5-5--5-5-5--5-8-7--------------------------------|-5-5-5-5-5-5--5-5-5--5-8-7--------------------------------|
E2----------------------------------------------------------|----------------------------------------------------------|----------------------------------------------------------|-x-x-x-x-x-x--x-x-x--x------------------------------------|-5-5-5-5-5-5--5-5-5--5-8-10-------------------------------|-5-5-5-5-5-5--5-5-5--5-8-10-------------------------------|
E1 E2 (there is and electronica sound here, It looks like Bjorn plays it in th music Video but don't even work about it here) A1 x2 B1 B2 B1 B2 E1 E2 E1 E2 A1 x2
F1----------------------------------------------------------|----------------------------------------------------------|----------------------------------------------------------|-x--x-x--x-x--x-x--x-x--x-x--x--x-x--x-x------------------|-0--0-0--0-0--0-0--0-0--0-0--0--0-0--0-0--8--/5\----------|-0--0-0--0-0--0-0--0-0--0-0--0--0-0--0-0--8--/5\----------|
G1----------------------------------------------------------|----------------------------------------------------------|----------------------------------------------------------|-x--x-x--x-x--x-x--x-x--x-x--x--x-x--x-x------------------|-2--2-2--2-2--2-2--2-2--2-2--2--2-2--2-2-3-3-5----3-5-----|-2--2-2--2-2--2-2--2-2--2-2--2--2-2--2-2--3---3-5---------|
G2----------------------------------------------------------|----------------------------------------------------------|----------------------------------------------------------|-x--x-x--x-x--x-x--x-x--x-x--x--x-x--x-x--5--5------------|-2--2-2--2-2--2-2--2-2--2-2--2--2-2--2-2--3--3------------|-2--2-2--2-2--2-2--2-2--2-2--2--2-2--2-2------------------|
G1 G2
H1 (this is a quick fill)------|------|------|--0---|--0---|--0---|
(again with the electronica) A1 x6
H2 (guitar ending)------------------------------|------------------------------|------------------------------|--x--x-x--x-x-----------------|--0--0-0--0-0-----------------|--0--0-0--0-0-----------------|
(ends with electronica)
Please rate this tab:
x1.0