In The Red – Very Scary tab

Very Scary - In The Red

Intro x 2--------------------------|--------------------------|--------------------------|-5-7-8-15-12--12-10--8/7--|-5-7-8-15-12--12-10--8/7--|-3-5-6-13-10--10-8---6/5--|
Verse x2
-------------------------------|-------------------------------|-------------------------------|-5---5-7---7-8-----10-10-10-10-|-5-555-7-777-8-888-10-10-10-10-|-3-333-5-555-6-666-8--8--8--8--|
-------------------------------|-------------------------------|-------------------------------|-5---5-7---7-8-----10-10-10-10-|-5-555-7-777-8-888-10-10-10-10-|-3-333-5-555-6-666-8--8--8--8--|
----------------------------------------------|----------------------------------------------|--------------------------------7-77777777777-|-5---5-7---7-8-----10-10-10-10--7-77777777777-|-5-555-7-777-8-888-10-10-10-10--5-55555555555-|-3-333-5-555-6-666-8--8--8--8-----------------|
Chorus
---------------------------------------------------------------------------------|---------------------------------------------------------------------------------|-12-12-12-12-12-12-12-10-10-10-10-10-10-9-9-9-9-9-9-8-8-8-8-8-8----7-7----7-7----|-12-12-12-12-12-12-12-10-10-10-10-10-10-9-9-9-9-9-9-8-8-8-8-8-8----7-7----7-7----|-10-10-10-10-10-10-10-8--8--8--8--8--8--7-7-7-7-7-7-6-6-6-6-6-6-55-5-5-55-5-5-55-|---------------------------------------------------------------------------------|
---------------------------------------------------------------------------------------------|---------------------------------------------------------------------------------------------|-12-12-12-12-12-12-12-10-10-10-10-10-10-9-9-9-9-9-9-8-8-8-8-8-8----7-7----7-7----7-7----7-7--|-12-12-12-12-12-12-12-10-10-10-10-10-10-9-9-9-9-9-9-8-8-8-8-8-8----7-7----7-7----7-7----7-7--|-10-10-10-10-10-10-10-8--8--8--8--8--8--7-7-7-7-7-7-6-6-6-6-6-6-55-5-5-55-5-5-55-5-5-55-5-5--|---------------------------------------------------------------------------------------------|
----------------------------------|----------------------------------|----7-9-----7-9-----7-9-----7-9---|-55------55------55------55-------|----------------------------------|----------------------------------|
Intro x 2--------------------------|--------------------------|--------------------------|-5-7-8-15-12--12-10--8/7--|-5-7-8-15-12--12-10--8/7--|-3-5-6-13-10--10-8---6/5--|
Verse x2
-------------------------------|-------------------------------|-------------------------------|-5---5-7---7-8-----10-10-10-10-|-5-555-7-777-8-888-10-10-10-10-|-3-333-5-555-6-666-8--8--8--8--|
-------------------------------|-------------------------------|-------------------------------|-5---5-7---7-8-----10-10-10-10-|-5-555-7-777-8-888-10-10-10-10-|-3-333-5-555-6-666-8--8--8--8--|
----------------------------------------------|----------------------------------------------|--------------------------------7-77777777777-|-5---5-7---7-8-----10-10-10-10--7-77777777777-|-5-555-7-777-8-888-10-10-10-10--5-55555555555-|-3-333-5-555-6-666-8--8--8--8-----------------|
Chorus
---------------------------------------------------------------------------------|---------------------------------------------------------------------------------|-12-12-12-12-12-12-12-10-10-10-10-10-10-9-9-9-9-9-9-8-8-8-8-8-8----7-7----7-7----|-12-12-12-12-12-12-12-10-10-10-10-10-10-9-9-9-9-9-9-8-8-8-8-8-8----7-7----7-7----|-10-10-10-10-10-10-10-8--8--8--8--8--8--7-7-7-7-7-7-6-6-6-6-6-6-55-5-5-55-5-5-55-|---------------------------------------------------------------------------------|
---------------------------------------------------------------------------------------------|---------------------------------------------------------------------------------------------|-12-12-12-12-12-12-12-10-10-10-10-10-10-9-9-9-9-9-9-8-8-8-8-8-8----7-7----7-7----7-7----7-7--|-12-12-12-12-12-12-12-10-10-10-10-10-10-9-9-9-9-9-9-8-8-8-8-8-8----7-7----7-7----7-7----7-7--|-10-10-10-10-10-10-10-8--8--8--8--8--8--7-7-7-7-7-7-6-6-6-6-6-6-55-5-5-55-5-5-55-5-5-55-5-5--|---------------------------------------------------------------------------------------------|
----------------------------------|----------------------------------|----7-9-----7-9-----7-9-----7-9---|-55------55------55------55-------|----------------------------------|----------------------------------|
Bridge
-----------------------------|-----------------------------|-----------------------------|-----5-----7-----8------10---|---5-----7-----8-----10------|-3-----5-----6-----8---------|
-----------------------------|-----------------------------|-----------------------------|-----5-----7-----8------10---|---5-----7-----8-----10------|-3-----5-----6-----8---------|
--------------------------------|--------------------------------|--------------------------------|-----5-----7-----8------10---12-|---5-----7-----8-----10------12-|-3-----5-----6-----8---------10-|
End
------------------------------------------|------------------------------------------|------------------------------------------|-5-7-8-7-10-8-7---5-7-8-7-10-8-7-13--12-7-|------------------------------------------|------------------------------------------|
------------------------------------------------------------|------------------------------------------------------------|------------------------------------------------------------|-5-7-8-7-10-8-7---5-7-8-7-10-8-7-13--12-7--12-7-------------|------------------------------------------------------------|------------------------------------------------------------|
Please rate this tab:
x1.0