In This Moment - The Great Divide tab

Song: The Great Divide
Artist: In This Moment
Album: The Dream
Tuning: Drop B (B,Gb,B,E,Ab,Db)

Gtr. I (Chris Howorth)

Gtr. II (Blake Bunzel)

*****************************************************************************Intro x2 Gtr. I|---------------------------| |---------------------------| |---------------------------| |---------------------------|x3|-5---5---5---5--3h5p3---3--| |0---0---0---0---------0----| | . . . . .
|
| Gtr. II (enters on 3rd time)|---------------------------||---------------------------||---------------------------|x1|---------------------------||-8---8---8---87h8p7----7--||0---0---0---0---------0----| . . . . .
|-----------------------||-----------------------||-----------------------||------------8--7--5--7-||-5---5---5--8--7--5--7-||0---0---0---8--7--5--7-||. . ..
|
|------------------------||------------------------||------------------------||------------8--7--5--7--||-8---8---8--8--7--5--7--||0---0---0---8--7--5--7--| . . ..
Verse x2|-------------------| |---------------------||-------------------| |---------------------||-------------------| |---------------------||------------0X-333-|x3|---------8--7--5--7--||3---3---3---0X-333-| |3---3--0-8--7--5--7--||30~030~030~-0X-333-| |30~03000-8--7--5--7--|
Pre-chorus (7/4)|-----------------------------------------||-----------------------------------------||-----------------------------------------||2--3------2--3------2--3-------2--3------||------3h5-------3h5--------3h5-------3h5-||-----------------------------------------|
| |
|-----------------------------------------||-----------------------------------------||-----------------------------------------||8~~~~~~~~~~~~~~~~~~~5~~~~~~~~~~~~~~~~~~~-||8~~~~~~~~~~~~~~~~~~~5~~~~~~~~~~~~~~~~~~~-||8~~~~~~~~~~~~~~~~~~~5~~~~~~~~~~~~~~~~~~~-|
|-----------------------------------------||-----------------------------------------||-----------------------------------------||2--3------2--3------2--3-------2--3------||------3h5-------3h5--------3h5-------3h5-||-----------------------------------------|
| |
|-----------------------------------------||-----------------------------------------||-----------------------------------------||0~~~~~~~~~~~~~~~~~~~3~~~~~~~~~~~~~~~~~~~-||0~~~~~~~~~~~~~~~~~~~3~~~~~~~~~~~~~~~~~~~-||0~~~~~~~~~~~~~~~~~~~3~~~~~~~~~~~~~~~~~~~-|
|-----------------------------------------||-----------------------------------------||-----------------------------------------||2--3------2--3------2--3-------2--3------||------3h5-------3h5--------3h5-------3h5-||-----------------------------------------|
| |
|-----------------------------------------||-----------------------------------------||-----------------------------------------||8~~~~~~~~~~~~~~~~~~~5~~~~~~~~~~~~~~~~~~~-||8~~~~~~~~~~~~~~~~~~~5~~~~~~~~~~~~~~~~~~~-||8~~~~~~~~~~~~~~~~~~~5~~~~~~~~~~~~~~~~~~~-|
Chorus (16th notes)|---------------------------------------------------------------------------||---------------------------------------------------------------------------||---------------------------------------------------------------------------||---------------------------------------------------------------------------||---------------------------------------33333333-33333333-------------------||00000000-00000000-33333333-33333333----------------------55555555-55555555-|
| |
|---------------------------------------------------------------------------||10(x8)---10(x8)---10(x8)---10(x6)11-13-8(x8)----8(x8)----6(x8)----6(x8)----||---------------------------------------------------------------------------||---------------------------------------------------------------------------||---------------------------------------------------------------------------||---------------------------------------------------------------------------|
|---------------------------------------------------------------------------||---------------------------------------------------------------------------||---------------------------------------------------------------------------||---------------------------------------------------------------------------||---------------------------------------------------------------------------||00000000-00000000-33333333-33333333----55555555-55555555-22222222-22222222-|
| |
|---------------------------------------------------------------------------||10(x8)---10(x8)---10(x8)---10(x6)11-13-8(x8)----8(x8)----11(x4)---13(x4)---||---------------------------------------------------------------------------||---------------------------------------------------------------------------||---------------------------------------------------------------------------||---------------------------------------------------------------------------|
|---------------------------------------------------------------------------||---------------------------------------------------------------------------||---------------------------------------------------------------------------||---------------------------------------------------------------------------||---------------------------------------33333333-33333333-------------------||00000000-00000000-33333333-33333333----------------------55555555-55555555-|
| |
|---------------------------------------------------------------------------||10(x8)---10(x8)---10(x8)---10(x6)11-13-8(x8)----8(x8)----6(x8)----6(x8)----||---------------------------------------------------------------------------||---------------------------------------------------------------------------||---------------------------------------------------------------------------||---------------------------------------------------------------------------|
|------------------------------------------------------------------------||------------------------------------------------------------------------||------------------------------------------------------------------------||------------------------------------------------------------------------||------------------------------------33333333-33333333-------------------||00000000-00000000-33333333-33333333-------------------55555555-55555555-|
| |
|------------------------------------------------------------------------||10(x8)---10(x8)---10(x8)---10(x8)---8(x8)----8(x8)----5(x8)----5(x8)----||------------------------------------------------------------------------||------------------------------------------------------------------------||------------------------------------------------------------------------||------------------------------------------------------------------------|
Post-chorus Gtr. 2 onlyTreble Pick-up|-------------------||-------------------||-------------------||---------------333-||---------------333-||30~030~030~-0X-333-| /\ /\ /\ || || || (low dist.) (High dist.)
Verse Pre-chorus Chorus
Bridge i|----------------------------------------------------------||----------------------------------------------------------||----------------------------------------------------------||7-7-7-7---7-7-7-7---7-7-7-7---8-8-8-8----8-8-8-11-11-11\--||5-5-5-5---5-5-5-5---5-5-5-5---5-5-5-5----5-5-5- 8- 8- 8\--||----------------------------------------------------------| /\ /\ /\ /\ /\ /\ /\ /\ || || || || || || || ||Wah pedal rise a rise a bit Down bit more
|--------------------------------------------------------||--------------------------------------------------------||--------------------------------------------------------||5-5-5-5---5-5-5-5---5-5-5-5---7-7-7-7---7-7-7-7-5-5-5-5-||3-3-3-3---3-3-3-3---3-3-3-3---3-3-3-3---3-3-3-3-3-3-3-3-||--------------------------------------------------------| /\ /\ . || ||Release and switch off wah
Bridge ii x2|--------------------------------------------------------||--------------------------------------------------------||--------------------------------------------------------||7-7-7-7---7-7-7-7---7-7-7-7---8-8-8-8---8-8-8-8-7-7-7\--||5-5-5-5---5-5-5-5---5-5-5-5---5-5-5-5---5-5-5-5-5-5-5\--||--------------------------------------------------------|
.|--------------------------------------------------------||--------------------------------------------------------||--------------------------------------------------------||5-5-5-5---5-5-5-5---5-5-5-5---7-7-7-7---7-7-7-7-5-5-5-5-||3-3-3-3---3-3-3-3---3-3-3-3---3-3-3-3---3-3-3-3-3-3-3-3-||--------------------------------------------------------|
.Bridge iii|--------------------------------------------------------||--------------------------------------------------------||--------------------------------------------------------||7-7-7-7---7-7-7-7---7-7-7-7---8-8-8-8---8-8-8-8-7-7-7-7-||5-5-5-5---5-5-5-5---5-5-5-5---5-5-5-5---5-5-5-5-5-5-5-5-||0-0-0-0---0-0-0-0---0-0-0-0---0-0-0-0---0-0-0-0-0-0-0-0-| . . . . . . . . . . . . . . . . . . . . . . . .
|--------------------------------------------------------||--------------------------------------------------------||--------------------------------------------------------||5-5-5-5---5-5-5-5---5-5-5-5---7-7-7-7---7-7-7-7-5-5-5-5-||3-3-3-3---3-3-3-3---3-3-3-3---3-3-3-3---3-3-3-3-3-3-3-3-||--------------------------------------------------------| . . . . . . . . . . . . . . . . . . . . . . . .
Bridge iv x2|--------------------------------------------------------||--------------------------------------------------------||--------------------------------------------------------||--------------------------------------------------------||0-0-0-0---0-0-0-0---0-0-0-0---0-0-0-0---0-0-0-0-0-0-0-0-||0-0-0-0---0-0-0-0---0-0-0-0---0-0-0-0---0-0-0-0-0-0-0-0-| . . . . . . . . . . . . . . . . . . . . . . . .
Pre-chorus Chorus
Ending (Both guitars)|----------------------------||----------------------------||----------------------------| x4|----------------------------||----------------------------||00000000--0000-0000-00000---| ........ .... .... ..... /\
||
Guitar I end solo (Guitar II still plays this)|t17p13p10h13t17p13t17p13p10h13t17p13t17p13p10h13-|\|-------------------------------------------------| \|-------------------------------------------------| ||-------------------------------------------------| | |-------------------------------------------------| ||-------------------------------------------------| |
| x4|t16p13p10h13(x4)-| ||-----------------| ||-----------------| ||-----------------| _______________________________||-----------------| /|-----------------|/
Clean Outro (guitar II fade in, then out)|-----------8--------------5--------------8-----------------------||---6--5--6---6----6--5--6---6----6--5--6---6---------------------||---------------------------------------------/12--9--------------||---------------------------------------------XXX--X--------------||5~~~~~~~~~~~~~~3~~~~~~~~~~~~~~5~~~~~~~~~~~~~-/10--7---5~~~~~~~~~-||-----------------------------------------------------------------|
If you have any questions or comments, email me at bassiscooler@gmail.com Please rate! (This is my first guitar TAB so go easy ;P) BTW: sorry about the weird symbols in the beginning. I could not edit it out.
Tap to rate this tab
 
# A B C D E F G H I J K L M N O P Q R S T U V W X Y Z