Incubus - Hilikus tab

HILIKUS
As recorded by Incubus
(From the 1997 EP ENJOY INCUBUS)


Transcribed by Aidan Hampson

 Words and Music by Incubus
Arranged by Aidan Hampson
 


Intro Moderately Fast Funk Q=100(16=s16) D9 4/4 Gtr I|---------|--------------------------------|||---------|--------------------------------|||---------|------5-(5)b6-------------7-----|||---------|-5h7----------7--5-(5)-7----5p0-|||---------|--------------------------------|||---------|--------------------------------||
A9|--x--9--x--9-x-x--9-x-x--9--9-x-x-|--9-x-x--9-x-x--9--9-x-12-x-12-12-x-x-x-x-||--x-12--x-12-x-x-12-x-x-12-12-x-x-|-12-x-x-12-x-x-12-12-x-12-x-12-12-x-x-x-x-||--x-12--x-12-x-x-12-x-x-12-12-x-x-|-12-x-x-12-x-x-12-12-x-12-x-12-12-x-x-x-x-||----------------------------------|------------------------------------------||----------------------------------|------------------------------------------||----------------------------------|------------------------------------------|
|--9-x-x--9-x-x--9-x-x--9-x-x--9--9-x-x-||-12-x-x-12-x-x-12-x-x-12-x-x-12-12-x-x-||-12-x-x-12-x-x-12-x-x-12-x-x-12-12-x-x-||---------------------------------------||---------------------------------------||---------------------------------------|
|--9-(0)--9-(0)--9-(0)--9--9--(9)--9--9--9--9--9--9--9--9--9--||-12-(0)-12-(0)-12-(0)-12-12-(12)-12-12-12-12-12-12-12-12-12--||-12-----12-----12-----12-12-(12)-12-12-12-12-12-12-12-12-12--||-------------------------------------------------------------||-------------------------------------------------------------||-------------------------------------------------------------|
|--9-x-x--9-x-x--9-x-x--9-x-x--9--9-x-x-||-12-x-x-12-x-x-12-x-x-12-x-x-12-12-x-x-||-12-x-x-12-x-x-12-x-x-12-x-x-12-12-x-x-||---------------------------------------||---------------------------------------||---------------------------------------|
|--9-x-x--9-x-x--9--9-x-12-x-12-12-x-x-x-x-||-12-x-x-12-x-x-12-12-x-12-x-12-12-x-x-x-x-||-12-x-x-12-x-x-12-12-x-12-x-12-12-x-x-x-x-||------------------------------------------||------------------------------------------||------------------------------------------|
D5 Eb5 D5 Eb5 Gtrs II, III|--9-x-x--9-x-x--9-x-x--9-x-x--9--9-x---|-----------------------------|||-12-x-x-12-x-x-12-x-x-12-x-x-12-12-x---|-----------------------------|||-12-x-x-12-x-x-12-x-x-12-x-x-12-12-x-7-|-7-7--8-8-8--7-7-7--8-8-x-x--|||-------------------------------------7-|-7-7--8-8-8--7-7-7--8-8-x-x--|||-------------------------------------5-|-5-5--6-6-6--5-5-5--6-6-x-x--|||-------------------------------------5-|-5-5--6-6-6--5-5-5--6-6-x-x--||
Verse A7 Gtr I||--x-x-x--9-x-x--9-x--9-x-x--9--9-x-x-|||o-x-x-x-12-x-x-12-x-12-x-x-12-12-x-x-|||--x-x-x-12-x-x-12-x-12-x-x-12-12-x-x-|||-------------------------------------|||o------------------------------------|||-------------------------------------|
|--9-x-x--9-x-x--9--9-x-12-x-12-12-x-x-x-x-||-12-x-x-12-x-x-12-12-x-12-x-12-12-x-x-x-x-||-12-x-x-12-x-x-12-12-x-12-x-12-12-x-x-x-x-||------------------------------------------||------------------------------------------||------------------------------------------|
D5 Eb5 D5 Eb5 Gtrs II, III|--9-x-x--9-x-x--9-x-x--9-x-x--9--9-x---|------------------------------|||-12-x-x-12-x-x-12-x-x-12-x-x-12-12-x---|-----------------------------o|||-12-x-x-12-x-x-12-x-x-12-x-x-12-12-x-7-|-7-7--8-8-8--7-7-7--8-8-x-x---|||-------------------------------------7-|-7-7--8-8-8--7-7-7--8-8-x-x---|||-------------------------------------5-|-5-5--6-6-6--5-5-5--6-6-x-x--o|||-------------------------------------5-|-5-5--6-6-6--5-5-5--6-6-x-x---||
Bridge $ Am7 Gtr I|-x-x-x-5-x-x-5-x-x-5-x-x-5-5-x-x-|-5-x-x-5-x-x-5-x-x-5-x-5-5-5-x-x-||-x-x-x-5-x-x-5-x-x-5-x-x-5-5-x-x-|-5-x-x-5-x-x-5-x-x-5-x-5-5-5-x-x-||-x-x-x-5-x-x-5-x-x-5-x-x-5-5-x-x-|-5-x-x-5-x-x-5-x-x-5-x-5-5-5-x-x-||---------------------------------|---------------------------------||---------------------------------|---------------------------------||---------------------------------|---------------------------------|
A5 Gtrs II, III|-5-x-x-5-x-5-5-x-x-5-x-x-5-5-x-x-|-5-x-5-x-5-x-x-5-5-x-5-5-5-5-5---|||-5-x-x-5-x-5-5-x-x-5-x-x-5-5-x-x-|-5-x-5-x-5-x-x-5-5-x-5-5-5-5-5---|||-5-x-x-5-x-5-5-x-x-5-x-x-5-5-x-x-|-5-x-5-x-5-x-x-5-5-x-5-5-5-5-5---|||---------------------------------|-------------------------------7-|||---------------------------------|-------------------------------7-|||---------------------------------|-------------------------------5-||
Chorus A5 C5 A5 C5|-----------------------|-----------------------||-----------------------|-----------------------||--------5-5--x--x--x-x-|--------5-5--x--x--x-x-||-7-7-7--5-5--x--x--x-x-|-7-7-7--5-5--x--x--x-x-||-7-7-7--3-3--x--x--x-x-|-7-7-7--3-3--x--x--x-x-||-5-5-5--3-3--x--x--x-x-|-5-5-5--3-3--x--x--x-x-|
To Coda A5 C5 A5 C5|-----------------------|----------------------------|||-----------------------|----------------------------|||--------5-5--x--x--x-x-|--------5-5-(5)-5-5-(5)-5-5-|||-7-7-7--5-5--x--x--x-x-|-7-7-7--5-5-(5)-5-5-(5)-5-5-|||-7-7-7--3-3--x--x--x-x-|-7-7-7--3-3-(3)-3-3-(3)-3-3-|||-5-5-5--3-3--x--x--x-x-|-5-5-5--3-3-(3)-3-3-(3)-3-3-||
Pre-Verse A9 Gtr I|-x-12-x--9-x-x--9-x-x-x--9-x-x--9-x-x-||-x----x-12-x-x-12-x-x-x-12-x-x-12-x-x-||-x----x-12-x-x-12-x-x-x-12-x-x-12-x-x-||--------------------------------------||--------------------------------------||--------------------------------------|
|--9-x-x--9-x--9--9-x-x-------------------9-||-12-x-x-12-x-12-12-x-x-13-13-13-13-12-x-12-||-12-x-x-12-x-12-12-x-x-12-12-12-12-12-x-12-||-------------------------------------------||-------------------------------------------||-------------------------------------------|
D5 Eb5 D5 Eb5 Gtrs II, III|--9-x-x--9-x--9--9-x-10-10-10-x-10-10-x-x-|------------------------------|||-12-x-x-12-x-12-12-x-12-12-12-x-12-12-x-x-|------------------------------|||-12-x-x-12-x-12-12-x-12-12-12-x-12-12-x-x-|-7-7--8-8-8--7-7-7--8-8-x-x-x-|||------------------------------------------|-7-7--8-8-8--7-7-7--8-8-x-x-x-|||------------------------------------------|-5-5--6-6-6--5-5-5--6-6-x-x-x-|||------------------------------------------|-5-5--6-6-6--5-5-5--6-6-x-x-x-||
Verse A9 Gtr I|--9-x--9-x-x-----|--9-x-x--9-x-x--9--9-x-12-x-12-12-x-x-x-x-||-12-x-12-x-x-----|-12-x-x-12-x-x-12-12-x-12-x-12-12-x-x-x-x-||-12-x-12---------|-12-x-x-12-x-x-12-12-x-12-x-12-12-x-x-x-x-||-----------------|------------------------------------------||-----------------|------------------------------------------||-----------------|------------------------------------------|
D5 Eb5 D5 Eb5 Gtrs II, III|--9-x-x--9-x-x--9-x-x--9-x-x--9--9-x---|-----------------------------||-12-x-x-12-x-x-12-x-x-12-x-x-12-12-x---|-----------------------------||-12-x-x-12-x-x-12-x-x-12-x-x-12-12-x-7-|-7-7--8-8-8--7-7-7--8-8-x-x--||-------------------------------------7-|-7-7--8-8-8--7-7-7--8-8-x-x--||-------------------------------------5-|-5-5--6-6-6--5-5-5--6-6-x-x--||-------------------------------------5-|-5-5--6-6-6--5-5-5--6-6-x-x--|
A7 Gtr I|-x-x-x--9-x-x--9-x--9-x-x--9--9-x-x-||-x-x-x-12-x-x-12-x-12-x-x-12-12-x-x-||-x-x-x-12-x-x-12-x-12-x-x-12-12-x-x-||------------------------------------||------------------------------------||------------------------------------|
|--9-x-x--9-x-x--9--9-x-12-x-12-12-x-x-x-x-||-12-x-x-12-x-x-12-12-x-12-x-12-12-x-x-x-x-||-12-x-x-12-x-x-12-12-x-12-x-12-12-x-x-x-x-||------------------------------------------||------------------------------------------||------------------------------------------|
D.S. al Coda D5 Eb5 D5 Eb5 Gtrs II, III|--9-x-x--9-x-x--9-x-x--9-x-x--9--9-x---|-----------------------------|||-12-x-x-12-x-x-12-x-x-12-x-x-12-12-x---|-----------------------------|||-12-x-x-12-x-x-12-x-x-12-x-x-12-12-x-7-|-7-7--8-8-8--7-7-7--8-8-x-x--|||-------------------------------------7-|-7-7--8-8-8--7-7-7--8-8-x-x--|||-------------------------------------5-|-5-5--6-6-6--5-5-5--6-6-x-x--|||-------------------------------------5-|-5-5--6-6-6--5-5-5--6-6-x-x--||
Chorus & A5 C5 A5 C5|-----------------------|-----------------------||-----------------------|-----------------------||--------5-5--x--x--x-x-|--------5-5--x--x--x-x-||-7-7-7--5-5--x--x--x-x-|-7-7-7--5-5--x--x--x-x-||-7-7-7--3-3--x--x--x-x-|-7-7-7--3-3--x--x--x-x-||-5-5-5--3-3--x--x--x-x-|-5-5-5--3-3--x--x--x-x-|
A5 C5 A5 C5|-----------------------|----------------------------|||-----------------------|----------------------------|||--------5-5--x--x--x-x-|--------5-5-(5)-5-5-(5)-5-5-|||-7-7-7--5-5--x--x--x-x-|-7-7-7--5-5-(5)-5-5-(5)-5-5-|||-7-7-7--3-3--x--x--x-x-|-7-7-7--3-3-(3)-3-3-(3)-3-3-|||-5-5-5--3-3--x--x--x-x-|-5-5-5--3-3-(3)-3-3-(3)-3-3-||
Guitar Solo D9 A9 Gtr I Gtr IV|--------------------------------||--15-15-17-17-(17)\---x-17-x-||--------------------------------||-----------------------------||------5-(5)b6-------------7-----||-----------------------------||-5h7----------7--5-(5)-7----5p0-||-----------------------------||--------------------------------||-----------------------------||--------------------------------||-----------------------------|
|-17s15-15-15-15p14-15--14--14-(14)-14--||---------------------------------------||---------------------------------------||---------------------------------------||---------------------------------------||---------------------------------------|
|----17----17-------15-----------------------||--x----17----17-14----14----14h15p14--------||-------------------------16----------h16-14-||--------------------------------------------||--------------------------------------------||--------------------------------------------|
|-------------------------------------------------------------||-------------------------------------------------------------||-15-14-13-12----12----12s14-(14)b15r(14)-(14)b15r(14)-14-14\-||-------------14----14----------------------------------------||-------------------------------------------------------------||-------------------------------------------------------------|
|---------------------------------------------|---------------------------||---------------14-(14)b15-14-12----12-/12b13r|=(12)s10-------------------||--14-12-14-12-------------------14-----------|---------9-----------------||---------------------------------------------|-----------7s9-(9)-7-7-7s5-||---------------------------------------------|---------------------------||---------------------------------------------|---------------------------|
|--x-19-15--------------19-15----------------||----------19-15--------------19-15----------||----------------18-16--------------18-16s14s||--------------------------------------------||--------------------------------------------||--------------------------------------------|
|-----------15----15-(15)----15-(15)----15-(15)----15-(15)------||---------------------------------------------------------------||-16s14--14----14---------14---------14---------14---------14s==||---------------------------------------------------------------||---------------------------------------------------------------||---------------------------------------------------------------|
~~|---------------------|--------------------------------------||---------------------|--------------------------------------||-17------17s16-16s14s|=16s14s16s14s16-16-16-(16)-16-16-16\--||---------------------|--------------------------------------||---------------------|--------------------------------------||---------------------|--------------------------------------|
|-----22----19----20----19-------------------||-----------------------------22-22-22s20-22-||--19----19----19----19----19----------------||--------------------------------------------||--------------------------------------------||--------------------------------------------|
|--------------------------------------------------||-(22)b24-22b24-22-(22)b24----20-(20)-20-20----(0)-||--------------------------21---------21-21-21-----||--------------------------------------------------||--------------------------------------------------||--------------------------------------------------|
|-22-------22-------22-------22-------|-22-------22-------19b20r=19-19-19s20-||----20-------20-------20-------20----|----20-------20-----------------------||-------19-------19-------19-------19-|-------19-------19--------------------||-------------------------------------|--------------------------------------||-------------------------------------|--------------------------------------||-------------------------------------|--------------------------------------|
|-20----------------------------15-15----15-(15)----15-(15)-------||----17-17--------------------------------------------------14b15-||----------17-16-14-------12s14-------14---------14---------------||-----------------------------------------------------------------||-------------------12b13-----------------------------------------||-----------------------------------------------------------------|
|-22b24r(22)-20-19--------------------------|||------------------22-(22)b24r(22)b24r(22)--|||-------------------------------------------|||-------------------------------------------|||-------------------------------------------|||-------------------------------------------||
DJ Solo Am7 Gtr V|-x-x-x-x-x-x-5-5-x-x-x-x-8-x-x-x-|-5-x-x-x-x-x-5-5-x-x-x-x-8-x-x-x-||-x-x-x-x-x-x-5-5-x-x-x-x-5-x-x-x-|-5-x-x-x-x-x-5-5-x-x-x-x-5-x-x-x-||-x-x-x-x-x-x-5-5-x-x-x-x-5-x-x-x-|-5-x-x-x-x-x-5-5-x-x-x-x-5-x-x-x-||---------------------------------|---------------------------------||---------------------------------|---------------------------------||---------------------------------|---------------------------------|
|-5-x-x-x-x-x-5-5-x-x-8-x-7-5-x-x-|-x-x-5-5-x-x-x-x-x-x-7-x-7-x-8-x-|||-5-x-x-x-x-x-5-5-x-x-5-x-5-5-x-x-|-x-x-5-5-x-x-x-x-x-x-5-x-5-x-x-x-|||-5-x-x-x-x-x-5-5-x-x-5-x-5-5-x-x-|-x-x-5-5-x-x-x-x-x-x-5-x-5-x-x-x-|||---------------------------------|---------------------------------|||---------------------------------|---------------------------------|||---------------------------------|---------------------------------||
|-8-7-x-5-x-x-x-x-x-x-x-x-8-x-8-x-|-8-5-x-5-x-x-x-x-x-x-x-x-7-x-8-x-||-5-5-x-5-x-x-x-x-x-x-x-x-5-x-5-x-|-5-5-x-5-x-x-x-x-x-x-x-x-5-x-5-x-||-5-5-x-5-x-x-x-x-x-x-x-x-5-x-5-x-|-5-5-x-5-x-x-x-x-x-x-x-x-5-x-5-x-||---------------------------------|---------------------------------||---------------------------------|---------------------------------||---------------------------------|---------------------------------|
|-8-x-x-5-x-x-x-x-x-x-x-x-7-x-8-x-|-8-x-x-x-5-5-5-5-x-5-5-5-5-5-5-5-|||-5-x-x-5-x-x-x-x-x-x-x-x-5-x-5-x-|-5-x-x-x-5-5-5-5-x-5-5-5-5-5-5-5-|||-5-x-x-5-x-x-x-x-x-x-x-x-5-x-5-x-|-5-x-x-x-5-5-5-5-x-5-5-5-5-5-5-5-|||---------------------------------|---------------------------------|||---------------------------------|---------------------------------|||---------------------------------|---------------------------------||
Bridge Am7 Gtr I|-x-x-x-5-x-x-5-x-x-5-x-x-5-5-x-x-|-5-x-x-5-x-x-5-x-x-5-x-5-5-5-x-x-||-x-x-x-5-x-x-5-x-x-5-x-x-5-5-x-x-|-5-x-x-5-x-x-5-x-x-5-x-5-5-5-x-x-||-x-x-x-5-x-x-5-x-x-5-x-x-5-5-x-x-|-5-x-x-5-x-x-5-x-x-5-x-5-5-5-x-x-||---------------------------------|---------------------------------||---------------------------------|---------------------------------||---------------------------------|---------------------------------|
A5 Gtrs II, III|-5-x-x-5-x-5-5-x-x-5-x-x-5-5-x-x-|-5-x-5-x-5-x-x-5-5-x-5-5-5-5-5---|||-5-x-x-5-x-5-5-x-x-5-x-x-5-5-x-x-|-5-x-5-x-5-x-x-5-5-x-5-5-5-5-5---|||-5-x-x-5-x-5-5-x-x-5-x-x-5-5-x-x-|-5-x-5-x-5-x-x-5-5-x-5-5-5-5-5---|||---------------------------------|-------------------------------7-|||---------------------------------|-------------------------------7-|||---------------------------------|-------------------------------5-||
Chorus A5 C5 A5 C5|-----------------------|-----------------------||-----------------------|-----------------------||--------5-5--x--x--x-x-|--------5-5--x--x--x-x-||-7-7-7--5-5--x--x--x-x-|-7-7-7--5-5--x--x--x-x-||-7-7-7--3-3--x--x--x-x-|-7-7-7--3-3--x--x--x-x-||-5-5-5--3-3--x--x--x-x-|-5-5-5--3-3--x--x--x-x-|
A5 C5 A5 C5|-----------------------|----------------------------||-----------------------|----------------------------||--------5-5--x--x--x-x-|--------5-5-(5)-5-5-(5)-5-5-||-7-7-7--5-5--x--x--x-x-|-7-7-7--5-5-(5)-5-5-(5)-5-5-||-7-7-7--3-3--x--x--x-x-|-7-7-7--3-3-(3)-3-3-(3)-3-3-||-5-5-5--3-3--x--x--x-x-|-5-5-5--3-3-(3)-3-3-(3)-3-3-|
A5 C5 F#G5G#5 A5 C5 F#G5G#5|----------------------|----------------------||----------------------|----------------------||--------5-5-(5)-------|--------5-5-(5)-------||-7-7-7--5-5-(5)-4-5-6-|-7-7-7--5-5-(5)-4-5-6-||-7-7-7--3-3-(3)-4-5-6-|-7-7-7--3-3-(3)-4-5-6-||-5-5-5--3-3-(3)-2-3-4-|-5-5-5--3-3-(3)-2-3-4-|
A5 C5 F#G5G#5 A5 C5 F#G5G#5|----------------------|----------------------||----------------------|----------------------||--------5-5-(5)-------|--------5-5-(5)-------||-7-7-7--5-5-(5)-4-5-6-|-7-7-7--5-5-(5)-4-5-6-||-7-7-7--3-3-(3)-4-5-6-|-7-7-7--3-3-(3)-4-5-6-||-5-5-5--3-3-(3)-2-3-4-|-5-5-5--3-3-(3)-2-3-4-|
A5 C5 A5 C5|----------------------|----------------------||----------------------|----------------------||--------5-5-(5)-5-5-5-|--------5-5-(5)-5-5-5-||-7-7-7--5-5-(5)-5-5-5-|-7-7-7--5-5-(5)-5-5-5-||-7-7-7--3-3-(3)-3-3-3-|-7-7-7--3-3-(3)-3-3-3-||-5-5-5--3-3-(3)-3-3-3-|-5-5-5--3-3-(3)-3-3-3-|
A5 C5 A5 C5|----------------------|----------------------|||----------------------|----------------------|||--------5-5-(5)-5-5-5-|--------5-5-(5)-5-5-5-|||-7-7-7--5-5-(5)-5-5-5-|-7-7-7--5-5-(5)-5-5-5-|||-7-7-7--3-3-(3)-3-3-3-|-7-7-7--3-3-(3)-3-3-3-|||-5-5-5--3-3-(3)-3-3-3-|-5-5-5--3-3-(3)-3-3-3-||
Outro D9 A9 Gtr I|--------------------------------|---9--(9)---(9)----|--(9)----*||--------------------------------|--12-(12)--(12)----|-(12)----*||------5-(5)b6-------------7-----|--12-(12)--(12)----|-(12)----*||-5h7----------7--5-(5)-7----5p0-|--11-(11)--(11)----|-(11)----*||--------------------------------|-------------------|---------*||--------------------------------|-------------------|---------*|
** Generated using Power Tab Editor by Brad Larsen: The Official Power Tab Web Site
Tap to rate this tab
 
# A B C D E F G H I J K L M N O P Q R S T U V W X Y Z