Incubus - Privilege tab

tabbed by JJ

----------------------------------------------------------------------------------------------------------7-7-7-7--------------------------------------------------x-x-x-x--7-5-x-x-4-4-7-7-5-4-4-4-4-x-7-5-x-x-4-4-7-7-5-x-4-4-4-4--7-5-x-x-4-4-7-7-5-4-4-4-4-x-7-5-x-x-4-4-7-7-5-x----------5-3-x-x-2-2-5-5-3-2-2-2-2-x-5-3-x-x-2-2-5-5-3-x---------
----------------------------------------------------------------------------------------------------------------------------------------------------------------------------7-5-x-x-4-4-7-7-5-4-4-4-4-x-7-5-x-x-4-4-7-7-5-x-5-5------7-5-x-x-4-4-7-7-5-4-4-4-4-x-7-5-x-x-4-4-7-7-5-x-5-5------5-3-x-x-2-2-5-5-3-2-2-2-2-x-5-3-x-x-2-2-5-5-3-x---------
---------------------------------------------------------------------------------------------------------7----------------6----------------------6----------------x---------7-5--x-6-7--7-5-x-4/5--7-5--x-6-7--7-5-x-x-x-x-4---------7-5--x-4-7--7-5-x-4/5--7-5--x-4-7--7-5-x-x-x-x-----------5-3--x---5--5-3-x-2/3--5-3--x---5--5-3-x-x x-x----------
--------------------------------------------------------------------------------------------------------------------------6----------------------6--------------------------7-5--x-6-7--7-5-x-4/5--7-5--x-6-7--7-5-x-x-x-------------7-5--x-4-7--7-5-x-4/5--7-5--x-4-7--7-5-x-x-x-------------5-3--x---5--5-3-x-2/3--5-3--x---5--5-3-x-x x------------
repeat 2x --------------------------------------------------------- --------------------------------------------------------- --------------------------------------------------------- --------------------------------------------------------- --------------------------------------------------------- -5-3---0-5-3---0-5-5-3--0-5-3--0-5/6--------------------- repeat 4x
-4-4-4-4-----4-4-4-4-----4-4-4-4-----4-4-4-4--2-2-2-2-----2-2-2-2-----2-2-2-2-----2-2-2-2-------------------------------------------------------------------------------------------------------------------------------------------------------------------------------------
-4-4-4-4-----4-4-4-4-----4-4-4-4--------------2-2-2-2-----2-2-2-2-----2-2-2-2---------------------------------------------------------------------------------------------------x-x------------------------------------------x-x------------------------------------------x-x-
---------------------------------------------------------------------------------------------------------7----------------6----------------------6----------------x---------7-5--x-6-7--7-5-x-4/5--7-5--x-6-7--7-5-x-x-x-x-4---------7-5--x-4-7--7-5-x-4/5--7-5--x-4-7--7-5-x-x-x-x-----------5-3--x---5--5-3-x-2/3--5-3--x---5--5-3-x-x x-x----------
--------------------------------------------------------------------------------------------------------------------------6----------------------6--------------------------7-5--x-6-7--7-5-x-4/5--7-5--x-6-7--7-5-x-x-x-------------7-5--x-4-7--7-5-x-4/5--7-5--x-4-7--7-5-x-x-x-------------5-3--x---5--5-3-x-2/3--5-3--x---5--5-3-x-x x------------
feel free to rate my tab if it helped you thank you...
Tap to rate this tab
 
# A B C D E F G H I J K L M N O P Q R S T U V W X Y Z