Otherside tab with lyrics by Inme - Easy chords and tabs for guitar

Inme – Otherside tab

...InMe - Otherside...

Tuning: Drop D

Tabbed by: BrokenWhisper

By The Way The Intro My look Abit Dodgy But
Its how its played on most of the intro
JUst listen to the live version of the song or
 just play twice as fast as the regular way
Its how its accutaly played it is :D not sure
about nere the end of the song though.

Intro|----------------------------------------||----------------------------------------||----------------------------------------||--2222222--2222----2222222--2222--------||--2222222--2222----2222222--2222--------||--2222222--2222----2222222--2222--------|
|----------------------------------------||----------------------------------------||----------------------------------------||----------------------------------------||--10101010101010--9-9-9-9---------------||--10101010101010-10101010---------------|
|----------------------------------------||----------------------------------------||----------------------------------------||----------------------------------------||--12121212121212-10101010---------------||--10101010101010-10101010---------------|
|----------------------------------------||----------------------------------------||----------------------------------------||----------------------------------------||--7777777-9999--6666666-7777------------||--7777777-7777--7777777-7777------------|
|----------------------------------------||----------------------------------------||----------------------------------------||----------------------------------------||--7777779-10101010----------------------||--9999999-10101010----------------------|
* * * *|----------------------------------------||----------------------------------------||----------------------------------------||----------------------------------------||--99999999--1010\\\\\\\\\\\\\-----------||--99999999--1010\\\\\\\\\\\\\-----------|
|----------------------------------------||----------------------------------------||----------------------------------------||--2222222--2222----2222222--2222--------||--2222222--2222----2222222--2222--------||--2222222--2222----2222222--2222--------|
|----------------------------------------||----------------------------------------||----------------------------------------||----------------------------------------||--10101010101010--9-9-9-9---------------||--10101010101010-10101010---------------|
|----------------------------------------||----------------------------------------||----------------------------------------||----------------------------------------||--12121212121212-10101010---------------||--10101010101010-10101010---------------|
|----------------------------------------||----------------------------------------||----------------------------------------||----------------------------------------||--7777777-9999--6666666-7777------------||--7777777-7777--7777777-7777------------|
|----------------------------------------||----------------------------------------||----------------------------------------||----------------------------------------||--7777779-10101010----------------------||--9999999-10101010----------------------|
* * * *|----------------------------------------||----------------------------------------||----------------------------------------||----------------------------------------||--99999999--1010\\\\\\\\\\\\\-----------||--99999999--1010\\\\\\\\\\\\\-----------|
Verse
|----------------------------------------||----------------------------------------||----------------------------------------||----4---------7-----------4-------------||--4---4-----5---5-------4---4--7--------||--------0---------0---------------------|
|----------------------------------------||----------------------------------------||----------------------------------------||---4----------7-------------------------||-4---4------5---5-----------------------||-------3----------7---------------------|
|----------------------------------------||----------------------------------------||----------------------------------------||-----4-----4-----4-----4-----4----------||-5-4---5-4---5-4---5-4---5-4---4--------||----------------------------------------|
|----------------------------------------||----------------------------------------||----------------------------------------||-----5-----5-----5-----5-----5----------||-7-5---7-5---7-5---7-5---7-5---5--------||----------------------------------------|
|----------------------------------------||----------------------------------------||----------------------------------------||-----4-----4-----4-----4-----4----------||-5-4---7-4---8-4---7-4---5-4---4--------||----------------------------------------|
Bridge thing lol|----------------------------------------||----------------------------------------||--------------------3^------------------||-----5-----5----------------------------||---5-----5-----5------------------------||-7-----7-----7--------------------------|
Chorus|--5--5---555--9--9---999----------------||--5--5---555--9--9---999----------------||--5--5---555--9--9---999----------------||----------------------------------------||----------------------------------------||----------------------------------------|
***|--10--10---101010----0--0--0000---------||--10--10---101010----0--0--0000---------||--10--10---101010----0--0--0000---------||----------------------------------------||----------------------------------------||----------------------------------------|
Verse|----------------------------------------||----------------------------------------||----------------------------------------||-----4-----4-----4-----4-----4----------||-5-4---5-4---5-4---5-4---5-4---4--------||----------------------------------------|
|----------------------------------------||----------------------------------------||----------------------------------------||-----5-----5-----5-----5-----5----------||-7-5---7-5---7-5---7-5---7-5---5--------||----------------------------------------|
|----------------------------------------||----------------------------------------||----------------------------------------||-----4-----4-----4-----4-----4----------||-5-4---7-4---8-4---7-4---5-4---4--------||----------------------------------------|
|----------------------------------------||----------------------------------------||-----3^-----3^--------------------------||----------------------------------------||----------------------------------------||----------------------------------------|Chorus
|--5--5---555--9--9---999----------------||--5--5---555--9--9---999----------------||--5--5---555--9--9---999----------------||----------------------------------------||----------------------------------------||----------------------------------------|
***|--10--10---101010----0--0--0000---------||--10--10---101010----0--0--0000---------||--10--10---101010----0--0--0000---------||----------------------------------------||----------------------------------------||----------------------------------------|
SLow bit donno what its called =/ * * * ~ * * * ~|--13-13-13------13-13-13----------------||--13-13-13------13-13-13----------------||--13-13-13------13-13-13----------------||------------16------------16------------||----------------------------------------||----------------------------------------|
* * * ~ * * * ~|-12-12-12-----13-13-13------------------||-12-12-12-----13-13-13------------------||-12-12-12-----13-13-13------------------||-----------15----------14---------------||----------------------------------------||----------------------------------------|
* * * ~ * * * ~|-10-10-10-----11-11-11------------------||-10-10-10-----11-11-11------------------||-10-10-10-----11-11-11------------------||----------13-----------12---------------||----------------------------------------||----------------------------------------|
* * * ~ * * * ~|-9-9-9-----10-10-10---------------------||-9-9-9-----10-10-10---------------------||-9-9-9-----10-10-10---------------------||-------11-----------12------------------||----------------------------------------||----------------------------------------|
CHorus with Solo
|----------------------------------------||----------------------------------------||----------------------------------------||--2222222--2222----2222222--2222--------||--2222222--2222----2222222--2222--------||--2222222--2222----2222222--2222--------|
|----------------------------------------||----------------------------------------||----------------------------------------||----------------------------------------||--10101010101010--9-9-9-9---------------||--10101010101010-10101010---------------|
|----------------------------------------||----------------------------------------||----------------------------------------||----------------------------------------||--12121212121212-10101010---------------||--10101010101010-10101010---------------|
|----------------------------------------||----------------------------------------||----------------------------------------||----------------------------------------||--7777777-9999--6666666-7777------------||--7777777-7777--7777777-7777------------|
|----------------------------------------||----------------------------------------||----------------------------------------||----------------------------------------||--7777779-10101010----------------------||--9999999-10101010----------------------|
* * * *|----------------------------------------||----------------------------------------||----------------------------------------||----------------------------------------||--99999999--1010\\\\\\\\\\\\\-----------||--99999999--1010\\\\\\\\\\\\\-----------|you dont have to but i do fast pciknig on the solo sounds nice :Dalso you are suppose to pull off and hammer on in this part
|----------------------------------------||----------------------------------------||----------------------------------------||----------------------------------------||----------------------------------------||-0-2-0-3-0-5-0-7-0-8-0-7-0-5-0-7--------|
|----------------------------------------||----------------------------------------||----------------------------------------||----------------------------------------||----------------------------------------||-0-5-0-4-0-5-0-4-0-2-0-3-0-2-0-3--------|
|----------------------------------------||----------------------------------------||----------------------------------------||----------------------------------------||----------------------------------------||-0-2-0-3-0-5-0-7-0-8-0-7-0-5-0-7--------|
|----------------------------------------||----------------------------------------||----------------------------------------||----------------------------------------||----------------------------------------||-0-5-0-4-0-5-0-4-0-2-0-3-0-2-0-3--------|
Actual fast picking bit
|----------------------------------------||----------------------------------------||----------------------------------------||----------------------------------------||----------------------------------------||-2-3-2-3-2-3-2-3-4-5-4-5-4-5-4-5--------|
|----------------------------------------||----------------------------------------||----------------------------------------||----------------------------------------||----------------------------------------||-6-7-6-7-6-7-6-7-8-9-8-9-8-9-8-9--------|
|----------------------------------------||----------------------------------------||----------------------------------------||----------------------------------------||----------------------------------------||-6-7-6-7-6-7-6-7-6-7-6-7-6-7-6-7--------|
|----------------------------------------||----------------------------------------||----------------------------------------||----------------------------------------||----------------------------------------||-18-19-18-19-18-19-18-19-18-19-18-19----|
|----------------------------------------||----------------------------------------||----------------------------------------||----------------------------------------||----------------------------------------||-18-19-18-19///////////-----------------|
Outro **** ** ** ** *|-2222---22---22---22--2-----------------||-2222---22---22---22--2-----------------||-2222---22---22---22--2-----------------||------4----4----4----4--4---------------||----------------------------------------||----------------------------------------|
* * * * * * * * * * *|-10101010---1010---1010--1010---10------||-10101010---1010---1010--1010---10------||-10101010---1010---1010--1010---10------||----------11----11-----11----11---11----||----------------------------------------||----------------------------------------|
**** ** ** ** *|-0000-12-00-12-00-12-00-12-0-12---------||----------------------------------------||----------------------------------------||----------------------------------------||----------------------------------------||----------------------------------------|
******** * * * * * * * *|-99999999---1010101010-1010//////-------||-99999999---1010101010-1010//////-------||-99999999---1010101010-1010//////-------||----------------------------------------||----------------------------------------||----------------------------------------|
**** ** ** ** *|-2222---22---22---22--2-----------------||-2222---22---22---22--2-----------------||-2222---22---22---22--2-----------------||------4----4----4----4--4---------------||----------------------------------------||----------------------------------------|
* * * * * * * * * * *|-10101010---1010---1010--1010---10------||-10101010---1010---1010--1010---10------||-10101010---1010---1010--1010---10------||----------11----11-----11----11---11----||----------------------------------------||----------------------------------------|
**** ** ** ** *|-0000-12-00-12-00-12-00-12-0-12---------||----------------------------------------||----------------------------------------||----------------------------------------||----------------------------------------||----------------------------------------|
******** * * * * * * * *|-99999999---1010101010-1010//////-------||-99999999---1010101010-1010//////-------||-99999999---1010101010-1010//////-------||----------------------------------------||----------------------------------------||----------------------------------------|
^ ^ ^ ^ ^ ^ ^ ^|-2-2-2-2-2-2-2-2-2-2-2-2-2-2-2-2--------||----------------------------------------||----------------------------------------||----------------------------------------||----------------------------------------||----------------------------------------|
....End....
Please rate this tab:
x1.0