Inme – Faster The Chase tab

...InMe - Faster The Chase...

Tuning: Drop D

Tabbed By BrokenWhisper

Intro

|-------------------------||-------------------------||-------------------------||-------------------------||-------------------------||--xx-11b-12p11-11b-7/11--|
|-----------------||-----------------||-----------------||-----------------||-----------------||-11b-12/5-11//---|
You should be able to figure out the strum pattern for this bit.--->
|------------------------------------||------------------------------------||--------6---------------------------||--5-555-----555-444444444-----------||--5-555-----555-444444444-----------||--5-555-----555-444444444-----------|
Verse
|------------------------------------||------------------------------------||------------------------------------||--555-5555-5555-5777-7999-9999-9----||--555-5555-5555-5777-7999-9999-9----||--555-5555-5555-5777-7999-9999-9----|
|------------------------------||------------------------------||-------7h9--9b-7h9p7----------||---7h9---------------9-7------||-------------------------9-7--||------------------------------|
|------------------------||------------------------||------------------------||--555-5555-5555-5777-7--||--555-5555-5555-5777-7--||--555-5555-5555-5777-7--|
|--------------------||--------------------||--------------------||--222-333-55555-555-||--222-333-55555-555-||--222-333-55555-555-|
*|------------------------------------||-------10---------------------------||----------11------------------------||--999--------9999-99-99-99999-xx----||--999--------9999-99-99-99999-xx----||--999--------9999-99-99-99999-xx----|
|------------------------------------------||-------------------10---------------------||------------6b--------11------------------||--555555555-----999-----9999-99-99-99999--||--555555555-----999-----9999-99-99-99999--||--555555555-----999-----9999-99-99-99999--|
|-------------------------------||-------------------------------||-------------------------------||--xx-9-xx-77777-xx-999-xx------||--xx-9-xx-77777-xx-999-xx------||--xx-9-xx-77777-xx-999-xx-11b--|
Chorus
|-------------------------------||-------------------------------||-------------------------------||--0-00xx-7-77xx-9-99xx-5-55xx--||--0-00xx-7-77xx-9-99xx-5-55xx--||--0-00xx-7-77xx-9-99xx-5-55xx--|
|-------------------------------||-------------------------------||-------------------------------||--0-00xx-7-77xx-9-99xx-5-55xx--||--0-00xx-7-77xx-9-99xx-5-55xx--||--0-00xx-7-77xx-9-99xx-5-55xx--|
Verse
|----------------||----------------||----------------||----------------||----------------||--11b-12/7/11/--|
|------------------------------------||------------------------------------||------------------------------------||--555-5555-5555-5777-7999-9999-9----||--555-5555-5555-5777-7999-9999-9----||--555-5555-5555-5777-7999-9999-9----|
|------------------------------||------------------------------||-------7h9--9b-7h9p7----------||---7h9---------------9-7------||-------------------------9-7--||------------------------------|
|------------------------||------------------------||------------------------||--555-5555-5555-5777-7--||--555-5555-5555-5777-7--||--555-5555-5555-5777-7--|
|--------------------||--------------------||--------------------||--222-333-55555-555-||--222-333-55555-555-||--222-333-55555-555-|
|-------------------------------||-------------------------------||-------------------------------||--9999999-9999-99-99-99999-xx--||--9999999-9999-99-99-99999-xx--||--9999999-9999-99-99-99999-xx--|
|-------------------------------------------||-------------------------------------------||------------6b-----------------------------||--555555555-----9999999--9999-99-99-99999--||--555555555-----9999999--9999-99-99-99999--||--555555555-----9999999--9999-99-99-99999--|
Chorus
|-------------------------------||-------------------------------||-------------------------------||--0-00xx-7-77xx-9-99xx-5-55xx--||--0-00xx-7-77xx-9-99xx-5-55xx--||--0-00xx-7-77xx-9-99xx-5-55xx--|
|-------------------------------||-------------------------------||-------------------------------||--0-00xx-7-77xx-9-99xx-5-55xx--||--0-00xx-7-77xx-9-99xx-5-55xx--||--0-00xx-7-77xx-9-99xx-5-55xx--|
Brake down bit :DThis Part is repeated until 1:58|---------------------------||---------------------------||---------------------------||--7-777-7-777-7-777-7-777--||--5-555-5-555-5-555-5-555--||---------------------------|
|-------------------------||-------------------------||-------------------------||--55555555555-xx-777777--||--55555555555-xx-777777--||--55555555555-xx-777777--|
|-------------------------||-------------------------||-------------------------||--7-0-5-0-4-0------------||--------------4-5-4-0----||----------------------5--|
|--------------||--------------||--------------||-5-7-9-12b-7--||--------------||--------------|
|-------------------------||-------------------------||-------------------------||--55555555555-xx-777777--||--55555555555-xx-777777--||--55555555555-xx-777777--|
|-------------------------||-------------------------||-------------------------||--7-0-5-0-4-0------------||--------------4-5-4-0----||----------------------5--|
|--------------||--------------||--------------||-5-7-9-12b-7--||--------------||--------------|
|-------------------------||-------------------------||-------------------------||--7-0-5-0-4-0------------||--------------4-5-4-0----||----------------------5--|
Chorus
|------------------------------||------------------------------||------------------------------||------------------------------||------------------------------||--11--12/7/11/--11--12/5/11/--|
|-------------------------------||-------------------------------||-------------------------------||--0-00xx-7-77xx-9-99xx-5-55xx--||--0-00xx-7-77xx-9-99xx-5-55xx--||--0-00xx-7-77xx-9-99xx-5-55xx--|
|-------------------------------||-------------------------------||-------------------------------||--0-00xx-7-77xx-9-99xx-5-55xx--||--0-00xx-7-77xx-9-99xx-5-55xx--||--0-00xx-7-77xx-9-99xx-5-55xx--| x3
|-------------------------------||-------------------------------||-------------------------------||--0-00xx-7-77xx-9-99xx-5-55xx--||--0-00xx-7-77xx-9-99xx-5-55xx--||--0-00xx-7-77xx-9-99xx-5-55xx--|
|-------------------------------||-------------------------------||-------------------------------||--0-00xx-7-77xx-9--5-----------||--0-00xx-7-77xx-9--5-----------||--0-00xx-7-77xx-9--5-----------|
...End...
Please rate this tab:
x1.0