Inme - 7 Weeks tab

....InMe - 7 Weeks....

Tabbed by: BrokenWhisper

Tuning: Drop D

Intro

|--------------------------------------||--------------------------------------||--------------------------------------||--------------------------------------||-------------------------------8------||--0-10-12-0-0--0h10h12-0h10h12--------|
H|--------------------------------------||--------------------------------------||--------------------------------------||--------------------------------------||--------------------------------------||--0-10-12-0-0--10b--------------------|
|--------------------------------------||--------------------------------------||--------------------------------------||--------------------------------------||-------------------------------8------||--0-10-12-0-0--0h10h12-0h10h12--------|
|--------------------------------------||--------------------------------------||--------------------------------------||--------------------------------------||------------------------------10-10-8-||--0-10-12-0-0--0h10h12-0h10h12--------|
|--------------------------------------||--------------------------------------||--------------------------------------||--------------------------------------||-------------------------------8------||--0-10-12-0-0--0h10h12-0h10h12--------|
Gtr 1|--------------------------------------||--------------------------------------||--------------------------------------||----8-10-8----------10-12-10----------||---8-------8------10--------10--------||--8----------8--10------------20------|
Gtr 2|--------------------------------------||--------------------------------------||-10-10-10-10-10-10-10-9999999---------||--------------------------------------||--------------------------------------||--------------------------------------|
Verse
|--------------------------------------||--------------------------------------||--------------------------------------||--------------------------------------||-------------------------------8------||--0-10-12-0-0--0h10h12-0h10h12--------|
|--------------------------------------||--------------------------------------||--------------------------------------||--------------------------------------||------------------------------10-10-8-||--0-10-12-0-0--0h10h12-0h10h12--------|
|--------------------------------------||--------------------------------------||--------------------------------------||--------------------------------------||-------------------------------8------||--0-10-12-0-0--0h10h12-0h10h12--------|
|--------------------------------------||--------------------------------------||--------------------------------------||----8-10-8----------10-12-10----------||---8-------8------10--------10--------||--8----------8--10------------20------|x2
ChorusGtr 1|--------------------------------------||--------------------------------------||--------------------------------------||--5----9---7---1212-11-11-99--7--7-5--||--5----9---7---1212-11-11-99--7--7-5--||--5----9---7---1212-11-11-99--7--7-5--|
|--------------||--------------||--------------||--5----9---7--||--5----9---7--||--5----9---7--|
|---------------------------------------||---------------------------------------||---------------------------------------||---------------------------------------||---------------------------------------||--0-10-12-0-0-scratchdown/////////////-|
Gtr 2|----------------------||----------------------||-5--5----5----5-------||--7----7----7----7----||-----7----7----7------||----------------------|
|----------------------||----------------------||-4--4----4----4-------||--6----6----6----6----||-----5----5----5------||----------------------|Gtr 2 x4 all the way throught the chorus.
Verse
|--------------------------------------||--------------------------------------||--------------------------------------||--------------------------------------||-------------------------------8------||--0-10-12-0-0--0h10h12-0h10h12--------|
|--------------------------------------||--------------------------------------||--------------------------------------||--------------------------------------||------------------------------10-10-8-||--0-10-12-0-0--0h10h12-0h10h12--------|
|--------------------------------------||--------------------------------------||--------------------------------------||--------------------------------------||-------------------------------8------||--0-10-12-0-0--0h10h12-0h10h12--------|
|--------------------------------------||--------------------------------------||--------------------------------------||----8-10-8----------10-12-10----------||---8-------8------10--------10--------||--8----------8--10------------20------|x2
Chorus
ChorusGtr 1|--------------------------------------||--------------------------------------||--------------------------------------||--5----9---7---1212-11-11-99--7--7-5--||--5----9---7---1212-11-11-99--7--7-5--||--5----9---7---1212-11-11-99--7--7-5--|
|--------------------------------------||--------------------------------------||--------------------------------------||--5----9---7---1212-11-11-99--7--7----||--5----9---7---1212-11-11-99--7--7----||--5----9---7---1212-11-11-99--7--7----|
Gtr 2|----------------------||----------------------||-5--5----5----5-------||--7----7----7----7----||-----7----7----7------||----------------------|
|----------------------||----------------------||-4--4----4----4-------||--6----6----6----6----||-----5----5----5------||----------------------|Gtr 2 x4 all the way throught the chorus.
Brake down
|----------------------||----------------------||-5--5----5----5-------||--7----7----7----7----||-----7----7----7------||----------------------|
|----------------------||----------------------||-4--4----4----4-------||--6----6----6----6----||-----5----5----5------||----------------------| x8
|--------------------------------------||--------------------------------------||--------------------------------------||--1212--1111-99-77-5------5-----------||--1212--1111-99-77-5------5-----------||--1212--1111-99-77-5------5-----------|
H|--------------------------------------||--------------------------------------||--------------------------------------||--55555555-77777777-------------------||--55555555-77777777-------------------||--55555555-77777777-0-10-12-0-0-10b---|
Chorus
Gtr 1|--------------------------------------||--------------------------------------||--------------------------------------||--5----9---7---1212-11-11-99--7--7-5--||--5----9---7---1212-11-11-99--7--7-5--||--5----9---7---1212-11-11-99--7--7-5--|
|--------------------------------------||--------------------------------------||--------------------------------------||--5----9---7---1212-11-11-99--7--7-5--||--5----9---7---1212-11-11-99--7--7-5--||--5----9---7---1212-11-11-99--7--7-5--|
Gtr 2|----------------------||----------------------||-5--5----5----5-------||--7----7----7----7----||-----7----7----7------||----------------------|
|----------------------||----------------------||-4--4----4----4-------||--6----6----6----6----||-----5----5----5------||----------------------|Gtr 2 x4 all the way throught the chorus.
|--------------------------------------||--------------------------------------||--------------------------------------||--55555555--77777777------------------||--55555555--77777777------------------||--55555555--77777777------------------|
Endingfirst part or ending only gtr 1|--------------------------------------||--------------------------------------||--------------------------------------||--------------------------------------||-------------------------------8------||--0-10-12-0-0--0h10h12-0h10h12--------|
|--------------------------------------||--------------------------------------||--------------------------------------||--------------------------------------||------------------------------10-10-8-||--0-10-12-0-0--0h10h12-0h10h12--------|
|--------------------------------------||--------------------------------------||--------------------------------------||--------------------------------------||-------------------------------8------||--0-10-12-0-0--0h10h12-0h10h12--------|
|--------------------------------------||--------------------------------------||--------------------------------------||----8-10-8----------10-12-10----------||---8-------8------10--------10--------||--8----------8--10------------20------|
gtr 2 on second part of ending
|--------------------------------------||--------------------------------------||--11-11-11-11-11-11-11-11---11-11-11--||--------------------------------------||--------------------------------------||--------------------------------------|
|--------------------------------------||--------------------------------------||-11-11-12-12-12-11-11-11-11-11-11-11--||--------------------------------------||--------------------------------------||--------------------------------------|
|--------------------------------------||-----------------------10-10-10-------||-11-----11-11-11-11-11----------------||--------------------------------------||--------------------------------------||--------------------------------------|
|--------------------------------------||--------------------------------------||-11-11-11-11-11-11-11-11-11-11-11-11--||--------------------------------------||--------------------------------------||--------------------------------------|
|--------------------------------------||--------------------------------------||-11-10-10-10-10-10-10-10-99999999-----||--------------------------------------||--------------------------------------||--------------------------------------|
gtr 1 on second part of ending
|--------------------------------------||--------------------------------------||--------------------------------------||--------------------------------------||-------------------------------8------||--0-10-12-0-0--0h10h12-0h10h12--------|
|--------------------------------------||--------------------------------------||--------------------------------------||--------------------------------------||------------------------------10-10-8-||--0-10-12-0-0--0h10h12-0h10h12--------|
|--------------------------------------||--------------------------------------||--------------------------------------||--------------------------------------||-------------------------------8------||--0-10-12-0-0--0h10h12-0h10h12--------|
|--------------------------------------||--------------------------------------||--------------------------------------||----8-10-8----------10-12-10----------||---8-------8------10--------10--------||--8----------8--10------------20------|
Outro|--------------------------------------||--------------------------------------||--------------------------------------||--------------------------------------||-------------------------------8------||--0-10-12-0-0--0h10h12-0h10h12--------|
H|--------------------------------------||--------------------------------------||--------------------------------------||--------------------------------------||--------------------------------------||--0-10-12-0-0--0h10h12-0h10h12-10b----|
....End....
Tap to rate this tab
 
# A B C D E F G H I J K L M N O P Q R S T U V W X Y Z