Inme - So You Know tab

InMe - SO You Know

Tuning - Drop D  (DADGBe)

I tabbed this because the others are either wrong or incomplete.
And this is a amazing song by an amazing band.

I'm sure this is nealy 100% correct.

Any questions? Email me at toz13@hotmail.com 

If you find some of it confusing, listen to the track.

UPDATE 1: In the middle 8, theres a very small change, first note.




Intro/Verse - (00:00 <-> 00:39)

 - Intro -> X3 
 - verse -> X4


|----5--------5------------5--------2---------||--3---3----3----3-------3---3----0----0------||4--------4--------4-4p0--------2--------2--2/|< (Slide to 4 in next bar) |---------------------------------------------||---------------------------------------------||---------------------------------------------|
|------5~--------------------------------||---3~-----------------------------------||0~--------------------------------------||------------------2nd time only >>--12\-| (1st time back to first riff)|------------------------------------12\-||------------------------------------12\-|
Chorus (00:39 <-> 00:59) Guitar 1
|----------------------------------------------------||----------------------------------------------------||----------------------------------------------------||0-0-0-0---0-0-0-0---0-0---5-5-5-5---5-5-5-5---5-5---||0-0-0-0---0-0-0-0---0-0---5-5-5-5---5-5-5-5---5-5---||0-0-0-0---0-0-0-0---0-0---5-5-5-5---5-5-5-5---5-5---|
|------------------------------------------------------------||------------------------------------------------------------||-------------------------------------------------7-7-7-7-7-7||9-9-9-9---7-7-7-7---7-7-------5-------5-------5--x-x-x-x-x-x||9-9-9-9---7-7-7-7---7-7---5-5-5---5-5-5---5-5-5--5-5-5-5-5-5||9-9-9-9---7-7-7-7---7-7---5-5-5---5-5-5---5-5-5--0-0-0-0-0-0| . . . . . .
|----------------------------------------------------||----------------------------------------------------||----------------------------------------------------||----------0-0-0-0---0-0---5-5-5-5---5-5-5-5---5-5---||00000000--0-0-0-0---0-0---5-5-5-5---5-5-5-5---5-5---||00000000--0-0-0-0---0-0---5-5-5-5---5-5-5-5---5-5---| ........
|---------------------------------------------------------------------||---------------------------------------------------------------------||---------------------------------------------------------------------||----9-------9-------7-------7---5--5--5~-----(7)--(7)--(7)~----------||9-9-9-----9-9---7-7-7-----7-7---5--5--5~-----(7)--(7)--(7)~----------||9-9-9-----9-9---7-7-7-----7-7---5--5--5~-----(7)--(7)--(7)~----------| . . . . . . ^ play end of 3rd chorus only!
Guitar 2 (listen carefuly and you can hear these octave chords)
|---------------------|--------------------------------------||---------------------|--------------------------------------||7--------6------4----|7-------9-------11-----9------6--6--6~||x X40----x X8---x X16|x X16---x X16---x X8---x X8---x--x--x~||5--------4------2----|5-------7-------9------7------4--4--4~||---------------------|--------------------------------------|
Intro/Verse (00:59 <-> 01:21) An extra guitar is included in the 2nd verse. Listen for notes that aren't palm muted. Guitar 2
|-----------------------------------------------------------------||-----------------------------------------------------------------||4-(4)-4-4-4-4-4-4-4-4-4-4-4-4-4-4-7---7-7-7-7-7-7-6---6-6-6-6-6-6| X4|-----------------------------------------------------------------||-----------------------------------------------------------------||-----------------------------------------------------------------| . . . . . . . . . . . . . . . . . . . . . . . . . . . ^1st time only (4)
Chorus (01:21 <-> 01:40) Middle Eight (1:40 <-> 02:05) Guitar 1
|----------------------------|---------------------------------||----------------------------|---------------------------------||----0h7p0-6p0------------9v-|---------------------------------||--------------7p0-7/9-9-----|5---5-5---5-5-5-7---7-7---7-7-7-9||----------------------------|5---5-5---5-5-5-7---7-7---7-7-7-9||----------------------------|5---5-5---5-5-5-7---7-7---7-7-7-9|
|----------------------------|---------------------------------||----------------------------|---------------------------------||--0h7p0-6p0------------[9br]|---------------------------------||------------7p0-7/9-9-------|5---5-5---5-5-5-7---7-7---7-7-7-9||----------------------------|5---5-5---5-5-5-7---7-7---7-7-7-9||----------------------------|5---5-5---5-5-5-7---7-7---7-7-7-9|
|----------------------------|---------------------------------||----------------------------|---------------------------------||----0h7p0-6p0------------9v-|---------------------------------||--------------7p0-7/9-9-----|5---5-5---5-5-5-7---7-7---7-7-7-9||----------------------------|5---5-5---5-5-5-7---7-7---7-7-7-9||----------------------------|5---5-5---5-5-5-7---7-7---7-7-7-9|
|----------------------------|-------------------------------||----------------------------|-------------------------------||--0h7p0-6p0------------[9br]|-------------------------------||------------7p0-7/9-9-------|5---5-5---5-5-5-7---7-7---7-7-7||----------------------------|5---5-5---5-5-5-7---7-7---7-7-7||----------------------------|5---5-5---5-5-5-7---7-7---7-7-7|
|---------------------||---------------------||---------------------||5--5--5~-----7--7--7~||5--5--5~-----7--7--7~||5--5--5~-----7--7--7~|
Guitar 2(come in on 3rd) |-------------------------------|--------------------|---------------------||-------------------------------|--------------------|---------------------||-------------------------------|/14--12--11--9--7--9|4v-4v-4v----6v-6v-6b7||0h12-0h11-0h9-0h7-0h9-0h11-0h12|--------------------|---------------------||-------------------------------|--------------------|---------------------||-------------------------------|--------------------|---------------------| ^ 2nd time only
Guitar 3 (extra chords for studio version)
|---------------------------------||---------------------------------||7---7-7---7-7-7-6---6-6---6-6-6-7||x---x-x---x-x-x-x---x-x---x-x-x-x| |5---5-5---5-5-5-4---4-4---4-4-4-5||---------------------------------|
|---------------------------------||---------------------------------||---------------------------------||9--------------------------------| < Play this during the 1st bar's from the 3rd time|9 X16----------------------------||9--------------------------------|
Chorus (02:05 <-> 02:27) Chorus 2 (02:27 <-> 02:47)
|-----------------------------------------------------||-----------------------------------------------------||-----------------------------------------------------||0-------5-------9------11------5----------5-5-----5-5||0 X16---5 X16---9 X8---11 X8---5 X8---5-5-5-5-5-5-5-5||0-------5-------9------11------5------5-5-5-5-5-5-5-5|
. . . . |-----------------------------------||-----------------------------------||-----------------------------------||0-------5-------9------7------5----||0 X16---5 X16---9 X8---7 X8---5 X16||0-------5-------9------7------5----|
Guitar 2 |----0--------5-------|----0-------0-------2--------2-------||--3---3----3----3---3|--3---3---3---3---3---3----3----3---3||2-------2---------2--|4-------2-------0-------0---------0--| X2|---------------------|-------------------------------------||---------------------|-------------------------------------||---------------------|-------------------------------------|
Gutiar 3 - Octave chords -> same as Chorus Middle Eight (02:47 <-> 3:07) (miss out the last bar -> the slow 3 chord bit) Intro/verse (3:07 <-> End) [] -> pinch Harmonic . -> Palm mute br -> Bend then release ~ -> Let ring h -> Hammer On P -> Pull off / -> Slide Up \ -> Slide down () -> Note/chord played later
Tap to rate this tab
 
# A B C D E F G H I J K L M N O P Q R S T U V W X Y Z