Inme - Around We Go tab

Around we go - InMe
Writen by me

Tuning -  Drop D

Intro|--------------------------------------------||---------------------------------12~--------||--------------------------------------------||---11-11-11/12~-----11-11-11/12~------------||--------------------------------------------||--------------------------------------------|
|--------------------------------------------||---------------------------------12~--------||--------------------------------------------||---11-11-11/12~-----11-11-11/12~------------||--------------------------------------------||--------------------------------------------|
|--------------------------------------------||---------------------------------12~--------||--------------------------------------------||---11-11-11/12~-----11-11-11/12~------------||--------------------------------------------||--------------------------------------------|
|--------------------------------------------||---------------------------------12~--------||--------------------------------------------||---11-11-11/12~-----11-11-11/12~------------||--------------------------------------------||--------------------------------------------|Distortion
|--------------------------------------------||---------------------------------12~--------||--------------------------------------------||---11-11-11/12~-----11-11-11/12~------------||--------------------------------------------||--------------------------------------------|
|--------------------------------------------||---------------------------------12~bup-----||--------------------------------------------||---11-11-11/12~-----11-11-11/12~------------||--------------------------------------------||--------------------------------------------|
Verse|--------------------------------------------||--------------------------------------------||--------------------------------------------||---55-5-22-555-5444-4-22--------------------||---55-5-22-555-5444-4-22--------------------||---55-5-22-555-5444-4-22--------------------|
|--------------------------------------------||--------------------------------------------||--------------------------------------------||---55-5-22-555-5444-4-22--------------------||---55-5-22-555-5444-4-22--------------------||---55-5-22-555-5444-4-22--------------------|
|--------------------------------------------||---------11---11-------11---11--------------||-----9-------------9------------------------||---9---9----9----9---9----9-----------------||--------------------------------------------||--------------------------------------------|
|--------------------------------------------||---------10---10--------10---10-------------||-----9--------------9-----------------------||---9---9----9-----9---9----9----------------||--------------------------------------------||--------------------------------------------|
|--------------------------------------------||---------11---11-------11---11--------------||-----9-------------9------------------------||---9---9----9----9---9----9-----------------||--------------------------------------------||--------------------------------------------|
|--------------------------------------------||---------12---12--------12---12-------------||-----9--------------9-----------------------||---9---9----9-----9---9----9----------------||--------------------------------------------||--------------------------------------------|
|--------------------------------------------||---------11---11-------11---11--------------||-----9-------------9------------------------||---9---9----9----9---9----9-----------------||--------------------------------------------||--------------------------------------------|
|--------------------------------------------||---------10---10--------10---10-------------||-----9--------------9-----------------------||---9---9----9-----9---9----9----------------||--------------------------------------------||--------------------------------------------|
|--------------------------------------------||---------11---11-------11---11--------------||-----9-------------9------------------------||---9---9----9----9---9----9-----------------||--------------------------------------------||--------------------------------------------|
Bridge|--------------------------------------------||--11----------------------------------------||--------------------------------------------||--------------------------------------------||-----000000000000000------------------------||--------------------------------------------|
Chorus|------------------||------------------||------------------||----11--9--7------||----11--9--7------||----11--9--7------|
|------------------||------------------||------------------||----11--9--7------||----11--9--7------||----11--9--7------|
|------------------||------------------||------------------||----11--9--7------||----11--9--7------||----11--9--7------|
|------------------||------------------||------------------||----11--9--7------||----11--9--7------||----11--9--7------|
Verse
|--------------------------------------------||--------------------------------------------||--------------------------------------------||---55-5-22-555-5444-4-22--------------------||---55-5-22-555-5444-4-22--------------------||---55-5-22-555-5444-4-22--------------------|
|--------------------------------------------||--------------------------------------------||--------------------------------------------||---55-5-22-555-5444-4-22--------------------||---55-5-22-555-5444-4-22--------------------||---55-5-22-555-5444-4-22--------------------|
|--------------------------------------------||---------11---11-------11---11--------------||-----9-------------9------------------------||---9---9----9----9---9----9-----------------||--------------------------------------------||--------------------------------------------|
|--------------------------------------------||---------10---10--------10---10-------------||-----9--------------9-----------------------||---9---9----9-----9---9----9----------------||--------------------------------------------||--------------------------------------------|
|--------------------------------------------||---------11---11-------11---11--------------||-----9-------------9------------------------||---9---9----9----9---9----9-----------------||--------------------------------------------||--------------------------------------------|
|--------------------------------------------||---------12---12--------12---12-------------||-----9--------------9-----------------------||---9---9----9-----9---9----9----------------||--------------------------------------------||--------------------------------------------|
|--------------------------------------------||---------11---11-------11---11--------------||-----9-------------9------------------------||---9---9----9----9---9----9-----------------||--------------------------------------------||--------------------------------------------|
|--------------------------------------------||---------10---10--------10---10-------------||-----9--------------9-----------------------||---9---9----9-----9---9----9----------------||--------------------------------------------||--------------------------------------------|
|--------------------------------------------||---------11---11-------11---11--------------||-----9-------------9------------------------||---9---9----9----9---9----9-----------------||--------------------------------------------||--------------------------------------------|
Bridge|--------------------------------------------||--11----------------------------------------||--------------------------------------------||--------------------------------------------||-----000000000000000------------------------||--------------------------------------------|
Chorus|------------------||------------------||------------------||----11--9--7------||----11--9--7------||----11--9--7------|
|------------------||------------------||------------------||----11--9--7------||----11--9--7------||----11--9--7------|
|------------------||------------------||------------------||----11--9--7------||----11--9--7------||----11--9--7------|
|------------------||------------------||------------------||----11--9--7------||----11--9--7------||----11--9--7------|
Solo|--------------------------------------------||--------------------------------------------||--------------------------------------------||-7b--5-7-5-4h5-4--4h5-4h5p4-----------------||----------------------------4-5-7--5-4-0----||--------------------------------------------|
|------------7--10-8-7-----------------------||--9~-7h9-10-----------8~-7-9----------------||--------------------------------------------||--------------------------------------------||--------------------------------------------||--------------------------------------------|
|--------------------------------------------||--------------------------------------------||--7h9-7--5h7-5--4h5-4-2h4-0-----------------||--------------------------------------------||--------------------------------------------||--------------------------------------------|
|---------------------2h3----2h3----2h3p2h3p2-||-------------------------3------3------------||--2-02-02020202--2b--------------------------||---------------------------------------------||---------------------------------------------||---------------------------------------------|
|--2h3---2h3----3p2--------------------------||------3-----3-------------------------------||--------------------------------------------||--------------------------------------------||--------------------------------------------||--------------------------------------------|
|---2h3-5--3h5/7--5h7/8-7h8/10---------------||--------------------------------------------||--------------------------------------------||--------------------------------------------||--------------------------------------------||--------------------------------------------|
Break down not tabbed yet ^ ^ Bridge
|--------------------------------------------||--11----------------------------------------||--------------------------------------------||--------------------------------------------||-----000000000000000------------------------||--------------------------------------------|
Chorus|------------------||------------------||------------------||----11--9--7------||----11--9--7------||----11--9--7------|
|------------------||------------------||------------------||----11--9--7------||----11--9--7------||----11--9--7------|
|------------------||------------------||------------------||----11--9--7------||----11--9--7------||----11--9--7------|
|------------------||------------------||------------------||----11--9--7------||----11--9--7------||----11--9--7------|
Outro
|--------------------------------------------||--------------------------------------------||--------------------------------------------||--55------11-----/////////////11------------||--55------11-----/////////////11------------||--55------11-----/////////////11------------|
|--------------------------------------------||--------------------------------------------||--------------------------------------------||--55------11------11------------------------||--55------11------11------------------------||--55------11------11------------------------|
Tap to rate this tab
 
# A B C D E F G H I J K L M N O P Q R S T U V W X Y Z