Intestinal Occlution – Girl Knowledge tab

##############################
#Title: Girl Knowledge	     #
#Artist: Intestinal Occlution#
##############################

Intro (Guitar1) 2x:-|---------------------------------------|-|---------------------------------------|-|-------8---------8--------4-------4----|-|----10---10---10---10---6---6---6---6--|-|---------------------------------------|-|--8---------8---------4-------4--------|
-|---------------------------------------|-|---------------------------------------|-|------8-------8-------7-------7p8------|-|----8---8---8---8---8---8---8----------|-|--6-------6-------5-------5------------|-|---------------------------------------|
Verse1 (Guitar1) 4x:-|---------------------------------------|-|---------------------------------------|-|-------8---------8--------4-------4----|-|----10---10---10---10---6---6---6---6--|-|---------------------------------------|-|--8---------8---------4-------4--------|
-|---------------------------------------|-|---------------------------------------|-|------8-------8-------7-------7p8------|-|----8---8---8---8---8---8---8----------|-|--6-------6-------5-------5------------|-|---------------------------------------|
Prechorus (Guitar1) 4x:-|---------------------------------------|-|--------2--------------3-3p4h3---------|-|------3----3---3-----5---------5-------|-|----3--------3-----5-------------5-----|-|--1--------------3---------------------|-|---------------------------------------|
-|---------------------------------------|-|------------------------3-4-3----------|-|--------5-------------5-------5--------|-|------6----6---6----5-----------5------|-|----6--------6----3--------------------|-|--4------------------------------------|
-|---------------------------------------|-|--------2--------------3-3p4h3---------|-|------3----3---3-----5---------5-------|-|----3--------3-----5-------------5-----|-|--1--------------3---------------------|-|---------------------------------------|
-|------------------|-|------------------|-|--------5---------|-|------6----6---6--|-|----6--------6----|-|--4---------------|
Verse2 (Guitar1) 4x:-|---------------------------------------|-|---------------------------------------|-|-------8---------8--------4-------4----|-|----10---10---10---10---6---6---6---6--|-|---------------------------------------|-|--8---------8---------4-------4--------|
-|---------------------------------------|-|---------------------------------------|-|------8-------8-------7-------7p8------|-|----8---8---8---8---8---8---8----------|-|--6-------6-------5-------5------------|-|---------------------------------------|
Prechorus (Guitar1) 2x:-|---------------------------------------|-|--------2--------------3-3p4h3---------|-|------3----3---3-----5---------5-------|-|----3--------3-----5-------------5-----|-|--1--------------3---------------------|-|---------------------------------------|
-|---------------------------------------|-|------------------------3-4-3----------|-|--------5-------------5-------5--------|-|------6----6---6----5-----------5------|-|----6--------6----3--------------------|-|--4------------------------------------|
-|---------------------------------------|-|--------2--------------3-3p4h3---------|-|------3----3---3-----5---------5-------|-|----3--------3-----5-------------5-----|-|--1--------------3---------------------|-|---------------------------------------|
-|---------------------------------------|-|---------------------------------------|-|--------5-----------5-5-5-5-5-5-5------|-|------6----6---6----5-5-5-5-5-5-5------|-|----6--------6------3-3-3-3-3-3-3------|-|--4------------------------------------|
Guitar2:-|---------------------------------------|-|---------------------------------------|-|--3----5----6----5---------------------|-|--3----5----6----5---------------------|-|--1----3----4----3---------------------|-|---------------------------------------|
Chorus (Guitar1+2) 4x:I know your sign, your light, your-|---------------------------------------|-|---------------------------------------|-|---------------------------------------|-|--8-8-8-8-8-8-8-8--10-10-10-10-10-10---|-|--8-8-8-8-8-8-8-8--10-10-10-10-10-10---|-|--6-6-6-6-6-6-6-6--8-8-8-8-8-8-8-8-----|
darkest side in you...-|---------------------------------------|-|---------------------------------------|-|-------------------8-8-8-8-8-8-8-8-----|-|--6-6-6-6-6-6-6-6--8-8-8-8-8-8-8-8-----|-|--6-6-6-6-6-6-6-6--6-6-6-6-6-6-6-6-----|-|--4-4-4-4-4-4-4-4----------------------|
I can hear which voice is-|---------------------------------------|-|---------------------------------------|-|---------------------------------------|-|--8-8-8-8-8-8-8-8--10-10-10-10-10-10---|-|--8-8-8-8-8-8-8-8--10-10-10-10-10-10---|-|--6-6-6-6-6-6-6-6--8-8-8-8-8-8-8-8-----|
lyin' or is true...-|---------------------------------------|-|---------------------------------------|-|-------------------8-8-8-8-8-8-8-8-----|-|--6-6-6-6-6-6-6-6--8-8-8-8-8-8-8-8-----|-|--6-6-6-6-6-6-6-6--6-6-6-6-6-6-6-6-----|-|--4-4-4-4-4-4-4-4----------------------|
I know your sign, your light, your-|---------------------------------------|-|---------------------------------------|-|---------------------------------------|-|--8-8-8-8-8-8-8-8--10-10-10-10-10-10---|-|--8-8-8-8-8-8-8-8--10-10-10-10-10-10---|-|--6-6-6-6-6-6-6-6--8-8-8-8-8-8-8-8-----|
dreams of you and me...-|---------------------------------------|-|---------------------------------------|-|-13-13-13-13-13-13--8-8-8-8-8-8-8-8----|-|-13-13-13-13-13-13--8-8-8-8-8-8-8-8----|-|-11-11-11-11-11-11--6-6-6-6-6-6-6-6----|-|---------------------------------------|
I'm knowing...-|---------------------------------------|-|---------------------------------------|-|---------------------------------------|-|--6-6-6-6-6-6-6-6-6-6-6-6-6-6-6-6------|-|--6-6-6-6-6-6-6-6-6-6-6-6-6-6-6-6------|-|--4-4-4-4-4-4-4-4-4-4-4-4-4-4-4-4------|
Verse3 (Guitar1):
-|---------------------------------------|-|---------------------------------------|-|---------------------------------------|-|-10-10-10-10-10---6-6-6-6-6-6-6-6------|-|-10-10-10-10-10---6-6-6-6-6-6-6-6------|-|-8-8-8-8-8-8-8-8--4-4-4-4-4-4-4-4------|
-|---------------------------------------|-|---------------------------------------|-|-8-8-8-8-8-8-8-8--8-8-8-8-8-8-8-8------|-|-8-8-8-8-8-8-8-8--8-8-8-8-8-8-8-8------|-|-6-6-6-6-6-6-6-6--5-5-5-5-5-5-5-5------|-|---------------------------------------|
4x:-|---------------------------------------|-|---------------------------------------|-|-------8---------8--------4-------4----|-|----10---10---10---10---6---6---6---6--|-|---------------------------------------|-|--8---------8---------4-------4--------|
-|---------------------------------------|-|---------------------------------------|-|------8-------8-------7-------7p8------|-|----8---8---8---8---8---8---8----------|-|--6-------6-------5-------5------------|-|---------------------------------------|
Prechorus 2x Chorus Solo Bridge (=Verse1) Chorus 2x Solo:
h h h sl-|--3-4---6---3-4---4---3-4---6--/8--12-----|-|--4---4-----4---4-----4---4----/9---9-----|-|------------------------------------------|-|------------------------------------------|-|------------------------------------------|-|------------------------------------------|
Lyrics: Verse1: I don?t like girls with who I cannot speak I never rush I look before I leap We first need the same mentality I like girls who love and respect me Prechorus (2x): Verse2: When I look a girl deep in her eyes I recognize the bad part or blue skies I don?t need to do a bad abuse That won?t get you anywhere, that is no use Prechorus (4x): He hey, o ho, he hey, o ho... Chorus: I know your sign, your light, your darkest side in you I can hear which voice is lyin? or is true I know your sign, your light, your dreams of you and me I?m knowing Verse3: I have searched the most time of my life Only friends and dreams no future wife No kiss no flirt no hug I then regret And fuck her in my father?s shed Prechorus (2x): He hey, o ho, he hey, o ho... Chorus Bridge: I?m going out on the street, sitting a girl on a seat Nice and sweet a pretty girl, I?m going there and couldn?t speak I have just remembered her, I have sEEn her in my dreams Now I know her sign, her darkest side... Chorus (2x) Prechorus (2x)
Please rate this tab:
x1.0