Iron And Wine – Sodom South Georgia tab

Iron & Wine

"Sodom, South Georgia"

Capo 2nd fret

Intro

------3-3-3-3-------3------------1-1-1-1---1-1-----1-----|----0---0-0-0-----0-0----------1-1-1-1-1---1-1-----1-----|----5---5-5-5---5-----5-4-0-2--2-2-2-2-2---2-2-0---2-0---|-5------------5-------------0--0-0-0-0-0-0-0-0---2-0---3-|---------------------------------------------------------|---------------------------------------------------------|
1-----1-1---1-1---1-----0-----0---|1-----1-1---1-1---1-----1-----1-1-|2-0h2-2-2---2-2-0-0-2---0-----0-0-|3-----3-3-3-3-3---------2-0h2-2-2-| ***TO CHORUS...EVENTUALLY***----------------------3-3-----3-3-|----------------------------------|
---0-0---0------||---1-1---1----0-||---0-0---0------||---2-2-0---2----||-3-3-3----------||----------------||
CHORUS
---0-0---0-0-|---1-1---1-1-|---0-0---0-0-|---2-2---2-2-|-3-----2-----|-------------|
----0----------0-0---0-0---0------0-0---0-0---0---|----1----------1-1---1-1---1------1-1---1-1---1---|----2----0h2---2-2---0-0---0------0-0---0-0---0---|----2-0h2------2-2---0-0---2--0h2-2-2---2-2-0---2-|-0-----------0-----2-----3------------3-----------|--------------------------------------------------|
-----1-----------1-----------1-------------------|---1-1-1-1-1---1-1-1-1-1---1-1-1-1-1---1-1---1-1-|---2-2-2-2-2---0-0-0-0-0---2-2-2-2-2---2-2---2-2-|-3-----------2-----------0-----------0-----0-----|-------------------------------------------------|-------------------------------------------------|
----0----------0-0---0-0---0------0-0---0-0---0---|----1----------1-1---1-1---1------1-1---1-1---1---|----2----0h2---2-2---0-0---0------0-0---0-0---0---|----2-0h2------2-2---0-0---2--0h2-2-2---2-2-0---2-|-0-----------0-----2-----3------------3-----------|--------------------------------------------------|
-----1-----------1-----------1-------------------|---1-1-1-1-1---1-1-1-1-1---1-1-1-1-1---1-1---1-1-|---2-2-2-2-2---0-0-0-0-0---2-2-2-2-2---2-2---0-0-|-3-----------2-----------0-----------0-----2-----|-------------------------------------------------|-------------------------------------------------|
-----1-----------1-----------1-------------------|---1-1-1-1-1---1-1-1-1-1---1-1-1-1-1---1-1---1-1-|---2-2-2-2-2---0-0-0-0-0---2-2-2-2-2---2-2---0-0-|-3-----------2-----------0-----------0-----2-----|-------------------------------------------------|-------------------------------------------------|
-----1-----------1-----------1-------------------|---1-1-1-1-1---1-1-1-1-1---1-1-1-1-1---1-1---1-1-|---2-2-2-2-2---0-0-0-0-0---2-2-2-2-2---2-2---0-0-|-3-----------2-----------0-----------0-----2-----|-------------------------------------------------|-------------------------------------------------|
-----1-----------1-----------1-----------1-------|---1-1-1-1-1---1-1-1-1-1---1-1-1-1-1---1-1-1-1-1-|---2-2-2-2-2---0-0-0-0-0---2-2-2-2-2---2-2-2-2-2-|-3-----------2-----------0-----------0-----------|-------------------------------------------------|-------------------------------------------------|
---0------0-0---0------0-----0------0-0---0------|---1------1-1---1------1-1---1------1-1---1------|---0------0-0---0------0-0---0------0-0---0------|---2--0h2-2-2---2--0h2-2-2---2--0h2-2-2---2--0-2-|-3------------3------------3------------3--------|-------------------------------------------------|
BACK TO INTRO CHORDS
A G/E G D Bm-3---1---1---0---0-|-0---1---1---1---1-|-5---2---2---0---2-|-5---0---3---2---2-|-x---x---x---3---0-|-x---x---x---x---x-|
:D enjoy Questions/Comments nonameone@hotmail.com
Please rate this tab:
x1.0