Iron Butterfly - In-a-gadda-da-vida tab

-------------------------------------------------------------------------------
			     In-a-Da-Gadda-Vida - Iron Butterfly
-------------------------------------------------------------------------------
Tabbed by: beadhangingOne
Email: this_isnot_here@yahoo.com




|-----------------------------------||-6h8-6h8--8b9r====6-8-6-8b10r6---6-||--------------5-7--------------7---||-----------------------------------||-----------------------------------||-----------------------------------|
|-10b12-10-8----10b12-10-|-15-15--10----------------||------------10----------|-----------13p10--13--13--||------------------------|--------------------------||------------------------|--------------------------||------------------------|--------------------------||------------------------|--------------------------|
|----------------------------------------------------------------||-15b17-15b17-15-13----------------------------------------------||-------------------14-12-10-12-12b13.5r=12b13.5--12-10----10----||-------------------------------------------------------12-------||----------------------------------------------------------------||----------------------------------------------------------------|
|-----------------------------|-------------------------||-13-----13-----13-----13-----|-13-----13-----13--------||-12b14r=12b14r=12b14r=12b14r=|=12b14r=12b14r=12b14r====||-----------------------------|-------------------------||-----------------------------|-------------------------||-----------------------------|-------------------------|
|----------------------------------------------||----------------10----10----10-13-13-10-13-13-||-12b14r12-10----10----10----------------------||-------------12----12----12-------------------||----------------------------------------------||----------------------------------------------|
|-------------------------------------------------------------------||-15b17-15b17-15b17-15-13----------------15b17-15-13----------13----||-------------------------14h17p14h17p14-------------14-17-14-14----||-------------------------------------------------------------------||-------------------------------------------------------------------||-------------------------------------------------------------------|
|-----------------------------||-----------------------------||-----10----12b13r===12b13----||-/12----12-------------------||-----------------------------||-----------------------------|
|--------------------------------------------------------------||--------------------------------------------------------------||-12b14r12-10----10----10h12p10----10h12p10--12b14--12-9-------||-------------12----12----------12-----------------------10----||--------------------------------------------------------------||--------------------------------------------------------------|
|--------------------------------|----------------------------------------||--------------------------------|----------------------------------10----||-------12b14r==12b14r==12b14----|-12b14r12-10-------10-12-10-12b14-------||-12-----------------------------|-------------12-12----------------------||--------------------------------|----------------------------------------||--------------------------------|----------------------------------------|
|-13b15-13--10-------------------------------------||--------------13p10----10-------------------------||--------------------12----12p10-------10----------||--------------------------------10h12----10h12----||--------------------------------------------------||--------------------------------------------------|
|-------------------------------------------||--------13-----13------10----10----10------||-10-12--12b14r=12b14r==10----10----10------||--------------------------12----12----12---||-------------------------------------------||-------------------------------------------|
|----------------------------|----------10-------10----------------||-10----10----10----10-------|-10-------10-------10h13p10-10p13h10-||-10----10----10----10h12p10-|-10h12p10-10h12p10-10-------10-------||----12----12----12----------|-------------------------------------||----------------------------|-------------------------------------||----------------------------|-------------------------------------|
|----------10----------------10-------||-10h13p10-10h13p10-10h13p10-10h13p10-||-10-------10-------10----------------||-------------------------------------||-------------------------------------||-------------------------------------|
|------------------15--------15----------------------15-15---------------------------------||-----13-17-18b20-----18b20-----18p15----15h18-18b20-------15p13----13h15p13---------------||-/14---------------------------------17-------------------------14---------14\---10-------||-------------------------------------------------------------------------------------12---||------------------------------------------------------------------------------------------||------------------------------------------------------------------------------------------|
~~ ~~
|-----------------------------------------------------||-10--------10-------10--------12---------------------||-10--------10-------10--------12--------10-----------||----10-12-----10-12-----10-12-----10-12-----10-12----||-----------------------------------------------------||-----------------------------------------------------|
Tablature Legend ---------------- h - hammer-on p - pull-off b - bend pb - pre-bend r - bend release (if no number after the r, then release immediately) /\ - slide into or out of (from/to "nowhere") s - legato slide S - shift slide - natural harmonic [n] - artificial harmonic n(n) - tapped harmonic ~ - vibrato tr - trill T - tap TP - trem. picking PM - palm muting \n/ - tremolo bar dip; n = amount to dip \n - tremolo bar down n/ - tremolo bar up /n\ - tremolo bar inverted dip = - hold bend; also acts as connecting device for hammers/pulls <> - volume swell (louder/softer) x - on rhythm slash represents muted slash o - on rhythm slash represents single note slash
Tap to rate this tab
 
# A B C D E F G H I J K L M N O P Q R S T U V W X Y Z