Iron Maiden - El Dorado tab version 3

Well...It's a part of the song, and i know the tab is not complete.
Enjoy!

Intro

|------------------------------||------------------------------||------------------------------||------------------------------||--2---2-2-2-2-2-2-2-2---------||--0---0-0-0-0-0-0-0-0---------|
Main Riff...
|------------------------------||------------------------------||------------------------------||------------------------------||--2---5---5---7---------------||--0---3---3---5---------------|
|----------------------------||----------------------------||----------------------------||------------7---------------||--2---5-----5--7------------||--0---3--------5------------|
|--------------||--------------||--------------||--7-----------||--5-7--5--7---||----5--3--5---|
Verse
|------------------------------||------------------------------||------------------------------||------------------------------||--2---5---5---7---------------||--0---3---3---5-555--555-555--| **************
|------------------------------------||------------------------------------||------------------------------------||-----------7------------------------||--2---5----5--7---------------------||--0---3-------5--555--555-555-------| ************
|--------------||--------------||--------------||--7-----------||--5-7--5--7---||----5--3--5---|
Chorus
|------------------------------||------------------------------||------------------------------||------------------5-----------||--4-6-7--4-6-7-------7--------||------------------------------|
|------------------------------||------------------------------||------------------------------||------------------5--6--------||-4-6-7--4-6-7-----------------||------------------------------| x2
|------------------------------||------------------------------||------------------------------||-------------3----------------||-5-----------1---------3------||-3---------------------1------|
|------------------------------||------------------------------||------------------------------||-5------5--7----8---------5---||-3------3--5----6---8-----3---||--------------------6---------|
---- * ->palm mute
Tap to rate this tab
 
# A B C D E F G H I J K L M N O P Q R S T U V W X Y Z