Iron Maiden – Dont Look To The Eyes Of A Stranger tab

Band:  Iron Maiden
Album: Virtual XI
Song:  Don't Look To The Eyes Of A Stranger
Copyright (c)  2004
Version 1.0 - 10.10/2004

.  - palm mute           /  - slide up to
\  - slide down to       ~  - vibrato
h  - hammer on           b  - Bend
p  - pull off            Suffixes for bend
t  - tap                 f  - full bend    h - half bend
ph - pinched harmonic    q  - quarter bend t - tap bend
*  - see comment         ^  - Hold bend    r release bend
x  - Stuccatto           ~  - vibrato bend
,  - slight palm mute    () - ghost note, sustained note
"  - tremolo note        <> - Trill

Tunning E A D G B E

D#||------------------|---------------------------------|A#||------------------|---------------------------------|F#||------------------|----------14-------------10------|C#||------------------|------14------14-----10------10--|G#||------------------|--12--------------8--------------|D#||------------------|---------------------------------|
--------------------------|---------------------------------|--------------------------|---------------------------------|--------9-----------5-----|----------14-------------10------|-----9-----9-----5-----5--|------14------14-----10------10--|--7-----------3-----------|--12--------------8--------------|--------------------------|---------------------------------|
--------------------------|---------------------------------|--------------------------|---------------------------------|--------9-----------7-----|----------14-------------10------|-----9-----9-----7-----7--|------14------14-----10------10--|--7-----------5-----------|--12--------------8--------------|--------------------------|---------------------------------|
--------------------------|---------------------------------|--------------------------|---------------------------------|--------9-----------5-----|----------14-------------10------|-----9-----9-----5-----5--|------14------14-----10------10--|--7-----------3-----------|--12--------------8--------------|--------------------------|---------------------------------|
--------------------------|---------------------------------|--------------------------|---------------------------------|--------9-----------7-----|----------14-------------10------|-----9-----9-----7-----7--|------14------14-----10------10--|--7-----------5-----------|--12--------------8--------------|--------------------------|---------------------------------|
--------------------------|---------------------------------|--------------------------|---------------------------------|--------9-----------5-----|----------14-------------10------|-----9-----9-----5-----5--|------14------14-----10------10--|--7-----------3-----------|--12--------------8--------------|--------------------------|---------------------------------|
--------------------------|---------------------------------|--------------------------|---------------------------------|--------9-----------7-----|----------14-------------10------|-----9-----9-----7-----7--|------14------14-----10------10--|--7-----------5-----------|--12--------------8--------------|--------------------------|---------------------------------|
--------------------------|---------------------------------|--------------------------|---------------------------------|--------9-----------5-----|----------14-------------10------|-----9-----9-----5-----5--|------14------14-----10------10--|--7-----------3-----------|--12--------------8--------------|--------------------------|---------------------------------|
--------------------------|---------------------------------|--------------------------|---------------------------------|--------9-----------7-----|----------14-------------10------|-----9-----9-----7-----7--|------14------14-----10------10--|--7-----------5-----------|--12--------------8--------------|--------------------------|---------------------------------|
--------------------------|---------------------------------|--------------------------|---------------------------------|--------9-----------5-----|----------14-------------10------|-----9-----9-----5-----5--|------14------14-----10------10--|--7-----------3-----------|--12--------------8--------------|--------------------------|---------------------------------|
--------------------------|---------------------------------|--------------------------|---------------------------------|--------9-----------7-----|----------14-------------10------|-----9-----9-----7-----7--|------14------14-----10------10--|--7-----------5-----------|--12--------------8--------------|--------------------------|---------------------------------|
--------------------------|---------------------------------|--------------------------|---------------------------------|--------9-----------5-----|----------14-------------10------|-----9-----9-----5-----5--|------14------14-----10------10--|--7-----------3-----------|--12--------------8--------------|--------------------------|---------------------------------|
--------------------------|---------------------------------|--------------------------|---------------------------------|--------9-----------7-----|----------14-------------10------|-----9-----9-----7-----7--|------14------14-----10------10--|--7-----------5-----------|--12--------------8--------------|--------------------------|---------------------------------|
--------------------------|---------------------------------|--------------------------|---------------------------------|--------9-----------5-----|----------14-------------10------|-----9-----9-----5-----5--|------14------14-----10------10--|--7-----------3-----------|--12--------------8--------------|--------------------------|---------------------------------|
--------------------------|---------------------------------|--------------------------|---------------------------------|--------9-----------7-----|----------14-------------10------|-----9-----9-----7-----7--|------14------14-----10------10--|--7-----------5-----------|--12--------------8--------------|--------------------------|---------------------------------|
--------------------------|---------------------------------|--------------------------|---------------------------------|--------9-----------5-----|----------14-------------10------|-----9-----9-----5-----5--|------14------14-----10------10--|--7-----------3-----------|--12--------------8--------------|--------------------------|---------------------------------|
--------------------------|---------------------------------|--------------------------|---------------------------------|--------9-----------7-----|----------14-------------10------|-----9-----9-----7-----7--|------14------14-----10------10--|--7-----------5-----------|--12--------------8--------------|--------------------------|---------------------------------|
--------------------------|---------------------------------|--------------------------|---------------------------------|--------9-----------5-----|----------14-------------10------|-----9-----9-----5-----5--|------14------14-----10------10--|--7-----------3-----------|--12--------------8--------------|--------------------------|---------------------------------|
--------------------------|---------------------------------|--------------------------|---------------------------------|--------9-----------7-----|----------14-------------10------|-----9-----9-----7-----7--|------14------14-----10------10--|--7-----------5-----------|--12--------------8--------------|--------------------------|---------------------------------|
--------------------------|---------------------------------|--------------|--------------------------|---------------------------------|--------------|--------9-----------5-----|----------14-------------10------|--------9-----|-----9-----9-----5-----5--|------14------14-----10------10--|-----9-----9--|--7-----------3-----------|--12--------------8--------------|--7-----------|--------------------------|---------------------------------|--------------|
---------------------------|--------17----------17----------|---------------------------|----17----------17----------17--|-----------------------14--|------------14----------14------|--5--5--5--5--5--5--5------|--------------------------------|--5--5--5--5--5--5--5------|--------------------------------|--3--3--3--3--3--3--3------|--------------------------------|
--15------13------------|--------17----------17----------|--15------13------------|----17----------17----------17--|--12------10--------14--|------------14----------14------|------------------------|--------------------------------|------------------------|--------------------------------|------------------------|--------------------------------|
--15------13------------|--------17----------17----------|--15------13------------|----17----------17----------17--|--12------10--------14--|------------14----------14------|------------------------|--------------------------------|------------------------|--------------------------------|------------------------|--------------------------------|
--15------13------------|--------17----------17----------|--15------13------------|----17----------17----------17--|--12------10--------14--|------------14----------14------|------------------------|--------------------------------|------------------------|--------------------------------|------------------------|--------------------------------|
--15------13----------|--------------------------|--------------------|--15------13----------|--------------------------|--------------------|--12------10----------|--------------------------|--------------------|----------------------|--7-----7--------7--------|--5------3----------|----------------------|--7-----7--------7--------|--5------3----------|----------------------|--5--5--5--5--5--5--5--5--|--3------1----------|
--------------------------|--------------------|--------------------|--------------------------|--------------------|--------------------|--------------------------|--------------------|--5----5------------|--7-----7--------7--------|--5------3----------|--5----5------------|--7-----7--------7--------|--5------3----------|--3----3------------|--5--5--5--5--5--5--5--5--|--3------1----------|--------------------|
-------------------|--------------------------|--------------------|-------------------|--------------------------|--------------------|--7----------------|--------------------------|--------------------|--7----------------|--7-----7--------7--------|--5------3----------|--5----------------|--7-----7--------7--------|--5------3----------|-------------------|--5--5--5--5--5--5--5--5--|--3------1----------|
--------------------------|--------------------|--------------------------|--------------------------|--------------------|--------------------------|--------------------------|--------------------|--------------------------|--7-----7--------7--------|--5------3----------|--7-----7--------7--------|--7-----7--------7--------|--5------3----------|--7-----7--------7--------|--5--5--5--5--5--5--5--5--|--3------1----------|--5--5--5--5--5--5--5--5--|
--------------------|--------------------|-------------------|--------------------|--------------------|-------------------|--------------------|--5----5------------|--7----------------|--5------3----------|--5----5------------|--7----------------|--5------3----------|--3----3------------|--5----------------|--3------1----------|--------------------|-------------------|
--------------------------|----------------------|--------------------------|----------------------|--------------------------|------------------14--|--7-----7--------7--------|--5------3------------|--7-----7--------7--------|--5------3------------|--5--5--5--5--5--5--5--5--|--3------1------------|
--------17----------17----------|--15------13------------|----17----------17----------17--|--15------13------------|------------14----------14------|--12------10--------14--|--------------------------------|------------------------|--------------------------------|------------------------|--------------------------------|------------------------|
--------17----------17----------|--15------13----------|----17----------17----------17--|--15------13----------|------------14----------14------|--12------10----------|--------------------------------|----------------------|--------------------------------|----------------------|--------------------------------|----------------------|
--------------------------|--------------------|--------------------------|--------------------------|--------------------|--------------------------|--------------------------|--------------------|--------------------------|--7-----7--------7--------|--5------3----------|--7-----7--------7--------|--7-----7--------7--------|--5------3----------|--7-----7--------7--------|--5--5--5--5--5--5--5--5--|--3------1----------|--5--5--5--5--5--5--5--5--|
--------------------|--------------------|-------------------|--------------------|--------------------|-------------------|--------------------|--5----5------------|--7----------------|--5------3----------|--5----5------------|--7----------------|--5------3----------|--3----3------------|--5----------------|--3------1----------|--------------------|-------------------|
--------------------------|--------------------|--------------------------|--------------------------|--------------------|--------------------------|--------------------------|--------------------|--------------------------|--7-----7--------7--------|--5------3----------|--7-----7--------7--------|--7-----7--------7--------|--5------3----------|--7-----7--------7--------|--5--5--5--5--5--5--5--5--|--3------1----------|--5--5--5--5--5--5--5--5--|
--------------------|--------------------------|--------------------|--------------------|--------------------------|--------------------|--------------------|--------------------------|--------------------|--5------3----------|--7-----7--------7--------|--5------3----------|--5------3----------|--7-----7--------7--------|--5------3----------|--3------1----------|--5--5--5--5--5--5--5--5--|--3------1----------|
--------------------|-------------------|--------------------------|--------------------|-------------------|--------------------------|--5----5------------|--7----------------|--------------------------|--5----5------------|--7----------------|--7-----7--------7--------|--3----3------------|--5----------------|--7-----7--------7--------|--------------------|-------------------|--5--5--5--5--5--5--5--5--|
----------------------|--------17----------17----------|----------------------|----17----------17----------17--|------------------14--|------------14----------14------|--5------3------------|--------------------------------|--5------3------------|--------------------------------|--3------1------------|--------------------------------|
--15------13------------|--------17----------17----------|--15------13------------|----17----------17----------17--|--12------10--------14--|------------14----------14------|------------------------|--------------------------------|------------------------|--------------------------------|------------------------|--------------------------------|
--15------13----------|---------------------------------|--15------13----------|---------------------------------|--12------10----------|----------14-------------10------|----------------------|------14------14-----10------10--|----------------------|--12--------------8--------------|----------------------|---------------------------------|
--------------------------|---------------------------------|--------------------------|---------------------------------|--------9-----------5-----|----------14-------------10------|-----9-----9-----5-----5--|------14------14-----10------10--|--7-----------3-----------|--12--------------8--------------|--------------------------|---------------------------------|
--------------------------|---------------------------------|--------------------------|---------------------------------|--------9-----------7-----|----------14-------------10------|-----9-----9-----7-----7--|------14------14-----10------10--|--7-----------5-----------|--12--------------8--------------|--------------------------|---------------------------------|
--------------------------|---------------------------------|--------------------------|---------------------------------|--------9-----------5-----|----------14-------------10------|-----9-----9-----5-----5--|------14------14-----10------10--|--7-----------3-----------|--12--------------8--------------|--------------------------|---------------------------------|
--------------------------|---------------------------------|--------------------------|---------------------------------|--------9-----------7-----|----------14-------------10------|-----9-----9-----7-----7--|------14------14-----10------10--|--7-----------5-----------|--12--------------8--------------|--------------------------|---------------------------------|
--------------------------|---------------------------------|--------------------------|---------------------------------|--------9-----------5-----|----------14-------------10------|-----9-----9-----5-----5--|------14------14-----10------10--|--7-----------3-----------|--12--------------8--------------|--------------------------|---------------------------------|
--------------------------|---------------------------------|--------------------------|---------------------------------|--------9-----------7-----|----------14-------------10------|-----9-----9-----7-----7--|------14------14-----10------10--|--7-----------5-----------|--12--------------8--------------|--------------------------|---------------------------------|
--------------------------|---------------------------------|--------------------------|---------------------------------|--------9-----------5-----|----------14-------------10------|-----9-----9-----5-----5--|------14------14-----10------10--|--7-----------3-----------|--12--------------8--------------|--------------------------|---------------------------------|
--------------------------|---------------------------------|--------------------------|---------------------------------|--------9-----------7-----|----------14-------------10------|-----9-----9-----7-----7--|------14------14-----10------10--|--7-----------5-----------|--12--------------8--------------|--------------------------|---------------------------------|
--------------------------|---------------------------------|--------------------------|---------------------------------|--------9-----------5-----|----------14-------------10------|-----9-----9-----5-----5--|------14------14-----10------10--|--7-----------3-----------|--12--------------8--------------|--------------------------|---------------------------------|
--------------------------|---------------------------------|--------------------------|---------------------------------|--------9-----------7-----|----------14-------------10------|-----9-----9-----7-----7--|------14------14-----10------10--|--7-----------5-----------|--12--------------8--------------|--------------------------|---------------------------------|
--------------------------|---------------------------------|--------------------------|---------------------------------|--------9-----------5-----|----------14-------------10------|-----9-----9-----5-----5--|------14------14-----10------10--|--7-----------3-----------|--12--------------8--------------|--------------------------|---------------------------------|
-------------------------|------------------|------------------|-------------------------|------------------|------------------|--------9-----------7----|------------------|------------------|-----9-----9-----7-------|------------------|------------------|--7-----------5----------|------------------|------------------|-------------------------|------------------|------------------|
------------------|------------------|------------------|------------------|------------------|------------------|------------------|------------------|------------------|------------------|------------------|------------------|------------------|------------------|------------------|------------------|------------------|------------------|------------------|------------------|------------------|------------------|------------------|------------------|
------------------|------------------|------------------|---------------------|------------------|------------------|------------------|---------------------|------------------|------------------|------------------|------5h-4-----------|------------------|------------------|------------------|--------------5------|------------------|------------------|------------------|---------------------|------------------|------------------|------------------|---------------------|
---------------------|---------------------|---------------------|---------------------|---------------------|---------------------|------5h-4-----------|------5h-4--------7--|------5h-4-----------|--------------5------|---------------------|--------------5------|---------------------|---------------------|---------------------|---------------------|---------------------|---------------------|
---------------------|---------------------|---------------------|---------------------|---------------------|---------------------|------5h-4-----------|------5h-4-----------|------5h-4-----------|--------------5------|--------------5------|--------------5------|---------------------|---------------------|---------------------|---------------------|---------------------|---------------------|
---------------------|---------------------|---------------------|---------------------|---------------------|---------------------|------5h-4-----------|------5h-4-----------|------5h-4-----------|--------------5------|--------------5------|--------------5------|---------------------|---------------------|---------------------|---------------------|---------------------|---------------------|
---------------------|---------------------|---------------------|---------------------|---------------------|---------------------|------5h-4--------7--|------5h-4-----------|------5h-4-----------|---------------------|--------------5------|--------------5------|---------------------|---------------------|---------------------|---------------------|---------------------|---------------------|
---------------------|---------------------|---------------------|---------------------|---------------------|---------------------|------5h-4-----------|------5h-4--------7--|------5h-4-----------|--------------5------|---------------------|--------------5------|---------------------|---------------------|---------------------|---------------------|---------------------|---------------------|
---------------------|---------------------|---------------------|---------------------|---------------------|---------------------|------5h-4-----------|------5h-4-----------|------5h-4--------7--|--------------5------|--------------5------|---------------------|---------------------|---------------------|---------------------|---------------------|---------------------|---------------------|
---------------------|---------------------|---------------------|---------------------|---------------------|---------------------|------5h-4-----------|------5h-4-----------|------5h-4-----------|--------------5------|--------------5------|--------------5------|---------------------|---------------------|---------------------|---------------------|---------------------|---------------------|
---------------------|---------------------|---------------------|---------------------|---------------------|---------------------|------5h-4-----------|------5h-4-----------|------5h-4-----------|--------------5------|--------------5------|--------------5------|---------------------|---------------------|---------------------|---------------------|---------------------|---------------------|
---------------------|---------------------|---------------------|---------------------|---------------------|---------------------|------5h-4-----------|------5h-4--------7--|------5h-4-----------|--------------5------|---------------------|--------------5------|---------------------|---------------------|---------------------|---------------------|---------------------|---------------------|
---------------------|---------------------|---------------------|---------------------|---------------------|---------------------|------5h-4-----------|------5h-4-----------|------5h-4--------7--|--------------5------|--------------5------|---------------------|---------------------|---------------------|---------------------|---------------------|---------------------|---------------------|
---------------------|---------------------|---------------------|---------------------|---------------------|---------------------|------5h-4-----------|------5h-4-----------|------5h-4-----------|--------------5------|--------------5------|--------------5------|---------------------|---------------------|---------------------|---------------------|---------------------|---------------------|
---------------------|---------------------|---------------------|---------------------|---------------------|---------------------|------5h-4--------7--|------5h-4-----------|------5h-4-----------|---------------------|--------------5------|--------------5------|---------------------|---------------------|---------------------|---------------------|---------------------|---------------------|
---------------------|---------------------|---------------------|---------------------|---------------------|---------------------|------5h-4-----------|------5h-4-----------|------5h-4-----------|--------------5------|--------------5------|--------------5------|---------------------|---------------------|---------------------|---------------------|---------------------|---------------------|
---------------------|---------------------|---------------------|---------------------|---------------------|---------------------|------5h-4-----------|------5h-4-----------|------5h-4--------7--|--------------5------|--------------5------|---------------------|---------------------|---------------------|---------------------|---------------------|---------------------|---------------------|
---------------------|---------------------|---------------------|---------------------|---------------------|---------------------|------5h-4-----------|------5h-4-----------|------5h-4-----------|--------------5------|--------------5------|--------------5------|---------------------|---------------------|---------------------|---------------------|---------------------|---------------------|
---------------------|---------------------|---------------------|---------------------|---------------------|---------------------|------5h-4--------7--|------5h-4-----------|------5h-4-----------|---------------------|--------------5------|--------------5------|---------------------|---------------------|---------------------|---------------------|---------------------|---------------------|
---------------------|---------------------|---------------------|---------------------|---------------------|---------------------|------5h-4-----------|------5h-4--------7--|------5h-4-----------|--------------5------|---------------------|--------------5------|---------------------|---------------------|---------------------|---------------------|---------------------|---------------------|
---------------------|---------------------|---------------------|---------------------|---------------------|---------------------|------5h-4-----------|------5h-4-----------|------5h-4-----------|--------------5------|--------------5------|--------------5------|---------------------|---------------------|---------------------|---------------------|---------------------|---------------------|
---------------------|---------------------|---------------------|---------------------|---------------------|---------------------|------5h-4-----------|------5h-4-----------|------5h-4-----------|--------------5------|--------------5------|--------------5------|---------------------|---------------------|---------------------|---------------------|---------------------|---------------------|
---------------------|---------------------|---------------------|---------------------|---------------------|---------------------|------5h-4--------7--|------5h-4-----------|------5h-4-----------|---------------------|--------------5------|--------------5------|---------------------|---------------------|---------------------|---------------------|---------------------|---------------------|
---------------------|---------------------|---------------------|---------------------|---------------------|---------------------|------5h-4-----------|------5h-4--------7--|------5h-4-----------|--------------5------|---------------------|--------------5------|---------------------|---------------------|---------------------|---------------------|---------------------|---------------------|
---------------------|---------------------|---------------------|---------------------|---------------------|---------------------|------5h-4-----------|------5h-4-----------|------5h-4--------7--|--------------5------|--------------5------|---------------------|---------------------|---------------------|---------------------|---------------------|---------------------|---------------------|
---------------------|---------------------|---------------------|---------------------|---------------------|---------------------|------5h-4-----------|------5h-4-----------|------5h-4-----------|--------------5------|--------------5------|--------------5------|---------------------|---------------------|---------------------|---------------------|---------------------|---------------------|
---------------------|---------------------|----------------------|---------------------|---------------------|----------------------|------5h-4-----------|------5h-4-----------|----------------------|--------------5------|--------------5------|------7--5--7------5--|---------------------|---------------------|----------------------|---------------------|---------------------|----------------------|
-----------------------|----------------------|-----------------------|-----------------------|----------------------|-----------------------|------------------5----|----------------------|------------------5----|--7--5--7----5---------|------7--5--7------5--|--7--5--7----5---------|-----------------------|----------------------|-----------------------|-----------------------|----------------------|-----------------------|
----------------------|-----------------------|----------------------|----------------------|-----------------------|----------------------|----------------------|------------------5----|----------------------|------7--5--7------5--|--7--5--7----5---------|------7--5--7------5--|----------------------|-----------------------|----------------------|----------------------|-----------------------|----------------------|
-----------------------|----------------------|-----------------------|-----------------------|----------------------|-----------------------|------------------5----|----------------------|------------------5----|--7--5--7----5---------|------7--5--7------5--|--7--5--7----5---------|-----------------------|----------------------|-----------------------|-----------------------|----------------------|-----------------------|
----------------------|-----------------------|----------------------|----------------------|-----------------------|----------------------|----------------------|------------------5----|----------------------|------7--5--7------5--|--7--5--7----5---------|------7--5--7------5--|----------------------|-----------------------|----------------------|----------------------|-----------------------|----------------------|
-----------------------|----------------------|-----------------------|-----------------------|----------------------|-----------------------|------------------5----|----------------------|------------------5----|--7--5--7----5---------|------7--5--7------5--|--7--5--7----5---------|-----------------------|----------------------|-----------------------|-----------------------|----------------------|-----------------------|
-----------------------|------------------------|-----------------------|-----------------------|------------------------|-----------------------|------9--7--9----9--7--|--9----9--7--9----10----|--9h-7-----------------|-----------------------|------------------------|--------7/-5--7--------|-----------------------|------------------------|-----------------------|-----------------------|------------------------|-----------------------|
------------------|-----------------------|------------------------|------------------|-----------------------|------------------------|------------------|------9--7--9----9--7--|--9----9--7--9----10----|------------------|-----------------------|------------------------|------------------|-----------------------|------------------------|------------------|-----------------------|------------------------|
-----------------------|------------------|-----------------------|-----------------------|------------------|-----------------------|--9h-7-----------------|------------------|------9--7--9----9--7--|--------7/-5--7--------|------------------|-----------------------|-----------------------|------------------|-----------------------|-----------------------|------------------|-----------------------|
------------------------|-----------------------|------------------|------------------------|-----------------------|------------------|--9----9--7--9----10----|--9h-7-----------------|------------------|------------------------|--------7/-5--7--------|------------------|------------------------|-----------------------|------------------|------------------------|-----------------------|------------------|
-----------------------|------------------------|-----------------------|-----------------------|------------------------|-----------------------|------9--7--9----9--7--|--9----9--7--9----10----|--9h-7-----------------|-----------------------|------------------------|--------7/-5--7--------|-----------------------|------------------------|-----------------------|-----------------------|------------------------|-----------------------|
------------------|-------------------------|---------------------|------------------|-------------------------|---------------------|------------------|-------------------------|---------------------|------------------|--7--7--7--7--7----7--7--|--7--7--7------------|------------------|--7--7--7--7--7----7--7--|--7--7--7------------|------------------|--5--5--5--5--5----5--5--|--5--5--5------------|
-------------------------|-----------------------|----------------------|-------------------------|-----------------------|----------------------|-------------------------|------------------5----|----------------------|--7--7--7--7--7----7--7--|--7--7--7----5----5----|------7--5--7------5--|--7--7--7--7--7----7--7--|--7--7--7----5----3----|----------------------|--5--5--5--5--5----5--5--|--5--5--5----3---------|----------------------|
-----------------------|----------------------|-----------------------|-----------------------|----------------------|-----------------------|------------------5----|----------------------|------------------5----|--7--5--7----5---------|------7--5--7------5--|--7--5--7----5---------|-----------------------|----------------------|-----------------------|-----------------------|----------------------|-----------------------|
----------------------|-----------------------|----------------------|----------------------|-----------------------|----------------------|----------------------|------------------5----|----------------------|------7--5--7------5--|--7--5--7----5---------|------7--5--7------5--|----------------------|-----------------------|----------------------|----------------------|-----------------------|----------------------|
-----------------------|------------------------|-----------------------|-----------------------|------------------------|-----------------------|------------------5----|--7b---7b---7h-5--------|-----------------------|--7--5--7----5---------|------------------7h-5--|-----------------------|-----------------------|------------------------|--7h-5----0h-3--5~-----|-----------------------|------------------------|-----------------------|
---------------------|-------------------------|----------------------|---------------------|----5--------------------|----------------------|--7b-------7b---7b---|-------7h-5--7h-5--------|-----5--5b-------5----|---------------------|-------------------7h-5--|--7-------------------|---------------------|-------------------------|----------------------|---------------------|-------------------------|----------------------|
-----------------------|---------------------------|-----------------------|---------------------------|--5b---5b--------5-----|--7---------5h-7h-5-----5/-|--------------7-----7--|-------7-------------7-----|-----------------------|---------------------------|-----------------------|---------------------------|
----------------------------------|----------------------|----------------------------------|--------15b-----------|----------12------12h-14h-12------|--12------------------|--12h-14------14--------------14--|----------------------|----------------------------------|----------------------|----------------------------------|----------------------|
------12--12------12--12------12--|------12--12------12--15b-----|--15b---------15b---------15b-----|--15b---------15b-------------|----------------------------------|------------------------------|----------------------------------|------------------------------|----------------------------------|------------------------------|----------------------------------|------------------------------|
------------------|--------17----19----20----|--20b-----------20----|------------------|--20b---------------------|----------------------|------------------|--------------------------|----------------------|------------------|--------------------------|----------------------|------------------|--------------------------|----------------------|------------------|--------------------------|----------------------|
------20----19----17----|----------------------|-------------------------|------------------------|--20----20b-----------|-------------------------|------------------------|----------------------|-------------------------|------------------------|----------------------|--7--7--7--7--7----7--7--|------------------------|----------------------|--7--7--7--7--7----7--7--|------------------------|----------------------|--5--5--5--5--5----5--5--|
---------------------|-----------------------|--------------------|---------------------|-----------------------|--------------------|---------------------|-----------------------|---------------5----|--7--7--7------------|--7--7--7--7--7--------|----------5----5----|--7--7--7------------|--7--7--7--7--7--------|----------5----3----|--5--5--5------------|--5--5--5--5--5--------|----------3---------|
----------------------|-----------------------|----------------------|----------------------|-----------------------|----------------------|----------------------|------------------5----|----------------------|------7--5--7------5--|--7--5--7----5---------|------7--5--7------5--|----------------------|-----------------------|----------------------|----------------------|-----------------------|----------------------|
-----------------------|----------------------|-----------------------|-----------------------|----------------------|-----------------------|------------------5----|----------------------|------------------5----|--7--5--7----5---------|------7--5--7------5--|--7--5--7----5---------|-----------------------|----------------------|-----------------------|-----------------------|----------------------|-----------------------|
----------------------|-----------------------|-------------------|----------------------|-----------------------|-------------------|----------------------|------------------5----|-------------------|------7--5--7------5--|--7--5--7----5---------|--7----------------|----------------------|-----------------------|--7----------------|----------------------|-----------------------|--5----------------|
------------------|------------------|--------------------|-------------------|------------------|------------------|--------------------|-------------------|------------------|------------------|--------------------|-------------------|------------------|------------------|--7--------5--------|--3----------------|------------------|------------------|--7--------5--------|--3----------------|------------------|------------------|--5--------3--------|--1----------------|
------------------|-------------------|--------------------|-------------------|------------------|-------------------|--------------------|-------------------|------------------|--7----------------|--------------------|-------------------|------------------|--7----------------|----------3----5----|--7----------------|------------------|--5----------------|----------3----5----|--7----------------|------------------|-------------------|----------1----3----|--5----------------|
------------------|------------------|--------------------|-------------------|------------------|------------------|--------------------|-------------------|------------------|------------------|--------------------|-------------------|------------------|------------------|--7--------5--------|--3----------------|------------------|------------------|--7--------5--------|--3----------------|------------------|------------------|--5--------3--------|--1----------------|
------------------|-------------------|--------------------|------------------|-------------------|--------------------|------------------|--7----------------|--------------------|------------------|--7----------------|----------3----5----|------------------|--5----------------|----------3----5----|------------------|-------------------|----------1----3----|
-----------------------|--------------------|-----------------------|-----------------------|--------------------|-----------------------|-----------------------|---------------5----|------9--7--9----9--7--|--7--7--7--7--7--------|----------5----5----|-----------------------|--7--7--7--7--7--------|----------5----3----|-----------------------|--5--5--5--5--5--------|----------3---------|-----------------------|
------------------------|-----------------------|------------------|------------------------|-----------------------|------------------|--9----9--7--9----10----|--9h-7-----------------|------------------|------------------------|--------7/-5--7--------|------------------|------------------------|-----------------------|------------------|------------------------|-----------------------|------------------|
-----------------------|------------------------|-----------------------|-----------------------|------------------------|-----------------------|------9--7--9----9--7--|--9----9--7--9----10----|--9h-7-----------------|-----------------------|------------------------|--------7/-5--7--------|-----------------------|------------------------|-----------------------|-----------------------|------------------------|-----------------------|
------------------|-----------------------|------------------------|------------------|-----------------------|------------------------|------------------|------9--7--9----9--7--|--9----9--7--9----10----|------------------|-----------------------|------------------------|------------------|-----------------------|------------------------|------------------|-----------------------|------------------------|
-----------------------|------------------|-----------------------|-----------------------|------------------|-----------------------|--9h-7-----------------|------------------|------9--7--9----9--7--|--------7/-5--7--------|------------------|-----------------------|-----------------------|------------------|-----------------------|-----------------------|------------------|-----------------------|
------------------------|-----------------------|------------------|------------------------|-----------------------|------------------|--9----9--7--9----10----|--9h-7-----------------|------------------|------------------------|--------7/-5--7--------|------------------|------------------------|-----------------------|------------------|------------------------|-----------------------|------------------|
----------------------|-----------------------|----------------------|----------------------|-----------------------|----------------------|----------------------|-------------5---------|----------------------|------7--5--7------5--|--7--5--7---------7----|------7--5--7------5--|----------------------|-----------------------|----------------------|----------------------|-----------------------|----------------------|
-----------------------|----------------------|-----------------------|-----------------------|----------------------|-----------------------|-------------5---------|----------------------|-------------5---------|--7--5--7---------7----|------7--5--7------5--|--7--5--7---------7----|-----------------------|----------------------|-----------------------|-----------------------|----------------------|-----------------------|
----------------------|-----------------------|----------------------|----------------------|-----------------------|----------------------|----------------------|-------------5---------|----------------------|------7--5--7------5--|--7--5--7---------7----|------7--5--7------5--|----------------------|-----------------------|----------------------|----------------------|-----------------------|----------------------|
-----------------------|----------------------|-----------------------|-----------------------|----------------------|-----------------------|-------------5---------|----------------------|-------------5---------|--7--5--7---------7----|------7--5--7------5--|--7--5--7---------7----|-----------------------|----------------------|-----------------------|-----------------------|----------------------|-----------------------|
----------------------|-----------------------|---------------------------|----------------------|-----------------------|---------------------------|----------------------|-------------5---------|---------------------5-----|------7--5--7------5--|--7--5--7---------7----|----7-5-7---5-7-5-7-----7--|----------------------|-----------------------|---------------------------|----------------------|-----------------------|---------------------------|
---------------------------------|--------------------------|---------------------------------|--------------------------|----------14-------------10------|--------9-----------5-----|------14------14-----10------10--|-----9-----9-----5-----5--|--12--------------8--------------|--7-----------3-----------|---------------------------------|--------------------------|
---------------------------------|--------------------------|---------------------------------|--------------------------|----------14-------------10------|--------9-----------7-----|------14------14-----10------10--|-----9-----9-----7-----7--|--12--------------8--------------|--7-----------5-----------|---------------------------------|--------------------------|
---------------------------------|--------------------------|---------------------------------|--------------------------|----------14-------------10------|--------9-----------5-----|------14------14-----10------10--|-----9-----9-----5-----5--|--12--------------8--------------|--7-----------3-----------|---------------------------------|--------------------------|
---------------------------------|--------------------------|---------------------------------|--------------------------|----------14-------------10------|--------9-----------7-----|------14------14-----10------10--|-----9-----9-----7-----7--|--12--------------8--------------|--7-----------5-----------|---------------------------------|--------------------------|
---------------------------------|--------------------------|---------------------------------|--------------------------|----------14-------------10------|--------9-----------5-----|------14------14-----10------10--|-----9-----9-----5-----5--|--12--------------8--------------|--7-----------3-----------|---------------------------------|--------------------------|
---------------------------------|--------------------------|---------------------------------|--------------------------|----------14-------------10------|--------9-----------7-----|------14------14-----10------10--|-----9-----9-----7-----7--|--12--------------8--------------|--7-----------5-----------|---------------------------------|--------------------------|
---------------------------------|--------------------------|---------------------------------|--------------------------|----------14-------------10------|--------9-----------5-----|------14------14-----10------10--|-----9-----9-----5-----5--|--12--------------8--------------|--7-----------3-----------|---------------------------------|--------------------------|
---------------------------------|--------------------------|---------------------------------|--------------------------|----------14-------------10------|--------9-----------7-----|------14------14-----10------10--|-----9-----9-----7-----7--|--12--------------8--------------|--7-----------5-----------|---------------------------------|--------------------------|
---------------------------------|--------------------------|---------------------------------|--------------------------|----------14-------------10------|--------9-----------5-----|------14------14-----10------10--|-----9-----9-----5-----5--|--12--------------8--------------|--7-----------3-----------|---------------------------------|--------------------------|
---------------------------------|--------------------------|---------------------------------|--------------------------|----------14-------------10------|--------9-----------7-----|------14------14-----10------10--|-----9-----9-----7-----7--|--12--------------8--------------|--7-----------5-----------|---------------------------------|--------------------------|
---------------------------------|--------------------------|---------------------------------|--------------------------|----------14-------------10------|--------9-----------5-----|------14------14-----10------10--|-----9-----9-----5-----5--|--12--------------8--------------|--7-----------3-----------|---------------------------------|--------------------------|
---------------------------------|-----------------------|------------------|---------------------------------|-----------------------|------------------|----------14-------------10------|--------9--------------|------------------|------14------14-----10------10--|-----9-----9--5--------|------------------|--12--------------8--------------|--7-----------5--------|------------------|---------------------------------|--------------3--------|------------------|
-------------------------|-----------------------|------------------||-------------------------|-----------------------|------------------||-------------------------|------------------5----|------------------||--7--7--7--7--7----7--7--|--7--7--7----5----5----|------------------||--7--7--7--7--7----7--7--|--7--7--7----5----3----|------------------||--5--5--5--5--5----5--5--|--5--5--5----3---------|------------------||
Please rate this tab:
x1.0