Iron Maiden - Revelations tab

( )= shake note
^f = bend the note fully
*  = dead note          
/  = slide              
h  = hammer on          
p  = pull off           
...= Palm mute          
                        
Artist: iron maiden
Song title: revelations

0:00Intro: play 4x1|--------------------------------------------------------------|2|--------------------------------------------------------------|3|-----------3/5-7-5------*7------------------------------------|4|-5-7--5-7----------7---5*7------------------------------------|5|-5-7--5-7--------------5*5------------------------------------|6|-3-5--3-5--------------3*-------------------------------------|
0:30 Verse:1|--------------------------------------------------------------|2|--------------------------------------------------------------|3|--------------------------------------------------------------|4|-7-7-----3-3-----5-5-----7-7-7--------------------------------|5|-7-7-----3-3-----5-5-----7-7-7--------------------------------|6|-5-5-----1-1-----3-3-----5-5-5--(3)---------------------------|
1:031|--------------------------------------------------------------------|2|-------------------------10-8-10--10-8-6--6-5--------10-8h10p8------|3|----------------------------------------------7-5-4------------10-9-|4|-7-7-----3-3-----5-5------------------------------------------------|5|-7-7-----3-3-----5-5------------------------------------------------|6|-5-5-----1-1-----3-3------------------------------------------------|
1|--------------------------------------------------------------|2|-10-8-10--10-8-6--6-5--------10-8h10p8------------------------|3|----------------------7-5-4------------10-9-------------------|4|--------------------------------------------------------------|5|--------------------------------------------------------------|6|--------------------------------------------------------------|
1|--------------------------------------------------------------|2|-13-12-13--13-12-10-----13----------10-8h10p8-----------------|3|---------------------12----12-10-9------------10-9------------|4|--------------------------------------------------------------|5|--------------------------------------------------------------|6|--------------------------------------------------------------|
1|--------------------------------------------------------------|2|-13-12-13--13-12-10-----13----------10-8h10p8-----------------|3|---------------------12----12-10-9------------10-9------------|4|--------------------------------------------------------------|5|--------------------------------------------------------------|6|--------------------------------------------------------------|
1:341|--------------------------------------------------------------|2|--------------------------------------------------------------|3|---------------------7----------------------------------------|4|-7-5-7----7-5-7----5-7----3-5---------------------------------|5|-7-5-7----7-5-7----5-5----3-5---------------------------------|6|-5-3-5----5-3-5----3------1-3---------------------------------|
1|--------------------------------------------------------------|2|--------------------------------------------------------------|3|---------------------7----------------------------------------|4|-7-5-7----7-5-7----5-7----3-5---------------------------------|5|-7-5-7----7-5-7----5-5----3-5---------------------------------|6|-5-3-5----5-3-5----3------1-3---------------------------------|
1:47 Guitar one Dave Murray:Play 4x1|-8-7-8\3--8-7-8/3--8-7-8--7-5-7--5-3-5--3-2-3-----------------|2|--------------------------------------------------------------|3|--------------------------------------------------------------|4|--------------------------------------------------------------|5|--------------------------------------------------------------|6|--------------------------------------------------------------|
1:47 Guitar 2 Adrian smith:Play 4x (Just figure out the strumming here)1|--------------------------------------------------------------|2|--------------------------------------------------------------|3|--------------------------------------------------------------|4|--------------------------------------*7-7*---*---------------|5|-7-5-7--7-7-7-7--7-5-7--7-7-7-7-7-7--5*5-5*3-3*5-5------------|6|-5-3-5--5-5-5-5--5-3-5--5-5-5-5-5-5--3*---*1-1*3-3------------|PM ....... ...........
2:10 repeat until 2:501|--------------------------------------------------------------|2|------1------------1-------------1------------1---------------|3|--------------------------------------------------------------|4|---2----2-------2-----2--------3----3-------3----3------------|5|-0------------0-----------------------------------------------|6|----------------------------1-------------1-------------------|
(...just a babe in a black embrace...)1|--------------------------------------------------------------|2|--------1---------------1---------------1------------1--------|3|--------------------------------------------------------------|4|----2------2--------2------2--------0------0------0-----0-----|5|-3---------------3--------------------------------------------|6|---------------------------------3-------------3--------------|
2:50 .Play 2x.1|--------------------------------------------------------------|2|--------------------------------------------------------------|3|--------------------------------------------------------------|4|-----------------------------7-7-5-7-5--5---*-----------------|5|-7-7-7-7-------7-7-7-7--(3)--5-5-3-5-3--3--3*5-5--------------|6|-5-5-5-5--(3)--5-5-5-5---------------------1*3-3--------------|
3:05 play until 3:381|--------------------------------------------------------------|2|------1------------1-------------1------------1---------------|3|--------------------------------------------------------------|4|---2----2-------2-----2--------3----3-------3----3------------|5|-0------------0-----------------------------------------------|6|----------------------------1-------------1-------------------|
1|--------------------------------------------------------------|2|--------1---------------1---------------1------------1--------|3|--------------------------------------------------------------|4|----2------2--------2------2--------0------0------0-----0-----|5|-3---------------3--------------------------------------------|6|---------------------------------3-------------3--------------|
3:381|--------------------------------------------------------------|2|--------------------------------------------------------------|3|--------------------------------------------------------------|4|-----------------------------7-7-5-7-5--5---*-----------------|5|-7-7-7-7-------7-7-7-7--(3)--5-5-3-5-3--3--3*5-5--------------|6|-5-5-5-5--(3)--5-5-5-5---------------------1*3-3--------------|
1|--------------------------------------------------------------|2|--------------------------------------------------------------|3|--------------------------------------------------------------|4|-----------------------------7-7-5-7-5--5---*-----------------|5|-7-7-7-7-------7-7-7-7--(3)--5-5-3-5-3--3--3*5-5--------------|6|-5-5-5-5--(3)--5-5-5-5---------------------1*3-3--------------| (...the eyes of the nile are opening you'll see..)
3:571|--------------------------------------------------------------|2|--------------------------------------------------------------|3|---------------------7----------------------------------------|4|-7-5-7----7-5-7----5-7----3-5---------------------------------|5|-7-5-7----7-5-7----5-5----3-5---------------------------------|6|-5-3-5----5-3-5----3------1-3---------------------------------|
1|--------------------------------------------------------------|2|--------------------------------------------------------------|3|---------------------7----------------------------------------|4|-7-5-7----7-5-7----5-7----3-5---------------------------------|5|-7-5-7----7-5-7----5-5----3-5---------------------------------|6|-5-3-5----5-3-5----3------1-3---------------------------------|
4:09 rhythm before solo: play 2x then it changes when solo starts1|--------------------------------------------------------------|2|--------------------------------------------------------------|3|--------------------------------------------------------------|4|--------------------------------------*7-7*---*---------------|5|-7-5-7--7-7-7-7--7-5-7--7-7-7-7-7-7--5*5-5*3-3*5-5------------|6|-5-3-5--5-5-5-5--5-3-5--5-5-5-5-5-5--3*---*1-1*3-3------------|PM ....... ...........
During solo4:21 play until 5:031|--------------------------------------------------------------|2|--------------------------------------------------------------|3|-------------------7-5----------------------------------------|4|-7-5-7--2-2-2-2-2--5-3-7--2-2-2-2-2--7-5-7--7-7--5--5-5--4--2-|5|-5-3-5--0-0-0-0-0------5--0-0-0-0-0--5-3-5--5-5--3--3-3--2--0-|6|--------------------------------------------------------------|PM ... ... ... ... ... ...
5:03 Play 4x1|--------------------------------------------------------------|2|--------------------------------------------------------------|3|-----7^f-7-5---------7^f-7-5---------7^f-7-5------------------|4|-5-7---------7---5-7---------7---5-7---------7--7-5-----------|5|----------------------------------------------------7-5-------|6|--------------------------------------------------------------|I know this part on top isn't right but it sounds ok when you play to it
5:25 Play 4x1|--------------------------------------------------------------|2|--------------------------------------------------------------|3|--------------------------------------------------------------|4|--------------------------------------*7-7*---*---------------|5|-7-5-7--7-7-7-7--7-5-7--7-7-7-7-7-7--5*5-5*3-3*5-5------------|6|-5-3-5--5-5-5-5--5-3-5--5-5-5-5-5-5--3*---*1-1*3-3------------|PM ....... ...........
5:46 play until 6:221|--------------------------------------------------------------|2|--------------------------------------------------------------|3|--------------------------------------------------------------|4|--------------------------------------------------------------|5|-7-7----3-3----5-5-----7-7-7----------------------------------|6|-5-5----1-1----3-3-----5-5-5--(3)-----------------------------|
6:22 play until end of song1|--------------------------------------------------------------|2|------1------------1-------------1------------1---------------|3|--------------------------------------------------------------|4|---2----2-------2-----2--------3----3-------3----3------------|5|-0------------0-----------------------------------------------|6|----------------------------1-------------1-------------------|
1|--------------------------------------------------------------|2|--------1---------------1---------------1------------1--------|3|--------------------------------------------------------------|4|----2------2--------2------2--------0------0------0-----0-----|5|-3---------------3--------------------------------------------|6|---------------------------------3-------------3--------------|
This is a GREAT tune, one of maiden's finest. sorry i didnt get the solos, but hey im 13 so back off. Any questions or comments e-mail me at gregx4x5@hotmail.com
Tap to rate this tab
 
# A B C D E F G H I J K L M N O P Q R S T U V W X Y Z