Iron Maiden - Two Am tab

#----------------------------------PLEASE NOTE--------------------------------#
#This file is the author's own work and represents their interpretation of the#
#song. You may only use this file for private study, scholarship, or research.#
#-----------------------------------------------------------------------------#

From: "linus karlsson" 
Subject: i/iron_maiden/xfactor.tab
Date: Mon, 09 Mar 1998 08:25:03 PST


2 A.M Iron maiden / Xfactor (Bayley/Gers/Harris) Tabbed by Linus Karlsson 971109 Intro:Gr1(accoustic)|--------------0--|--------------0--|--------------0--|-----------------||-----------0-----|-----------0-----|-----------0-----|-----------0-----||--------5--------|--------5--------|--------5--------|--------5--------||-----2-----------|-----2-----------|-----4-----------|-----2-----------||--0--------------|--3--------------|--5--------------|--0--------------||-----------------|-----------------|-----------------|-----------------| Play this Intro-part 4 times
Gr2(clean)|-----------------------------------------------------------------------||--------8h10p8-------------8h10p8-------------8h10p8-------------------||--------------9-7----------------9-7----------------9-7---7------------||-----------------10-----------------10-----------------10--------------||-----------------------------------------------------------------------||-----------------------------------------------------------------------| Play this fill-in at the third time of the intropart
|-----------------------------------------------------------------------||--------8h10p8-------------8h10p8-------------8h10p8-------------------||--------------9-7----------------9-7----------------9-7----------------||-----------------10-----------------10-----------------(10)-10---------||-----------------------------------------------------------------------||-----------------------------------------------------------------------| Play this fill-in at the fourd time of the intropart
Verse(accoustic)|--------------------------|--------------------------||--------------0-----------|--------------0-----------||--------2-----------2-----|--------0-----------0-----||-----2-----2-----2-----2--|-----2-----2-----2-----2--||--0-----------------------|--3-----------------------||--------------------------|--------------------------|
|--------------------------|--------------------------||--------------0-----------|--------------0-----------||--------0-----------0-----|--------2-----------2-----||-----4-----4-----4-----4--|-----2-----2-----2-----2--||--5-----------------------|--0-----------------------||--------------------------|--------------------------| Play this 4 times
chorus(distortion)|------------------------------------------------||------------------------------------------------||-------------5-x-x-x-5--7-x-x-x-7---------------||--7-x-x-x-7--5-x-x-x-5--7-x-x-x-7--7-x-x-x-7\5--||--7-x-x-x-7--3-x-x-x-3--5-x-x-x-5--7-x-x-x-7\5--||--5-x-x-x-5------------------------5-x-x-x-5\3--|
|------------------------------------------------||------------------------------------------------||------------------------7-x-x-x-7---------------||--7-x-x-x-7--5-x-x-x-5--7-x-x-x-7--7-x-x-x-7\5--||--7-x-x-x-7--5-x-x-x-5--5-x-x-x-5--7-x-x-x-7\5--||--5-x-x-x-5--3-x-x-x-3-------------5-x-x-x-5\3--|
|------------------------------------------------||------------------------------------------------||-------------5-x-x-x-5--7-x-x-x-7---------------||--7-x-x-x-7--5-x-x-x-5--7-x-x-x-7--7-x-x-x-7\5--||--7-x-x-x-7--3-x-x-x-3--5-x-x-x-5--7-x-x-x-7\5--||--5-x-x-x-5------------------------5-x-x-x-5\3--|
|-----------------------------------||-----------------------------------||-------------5-x-x-x-5--7-x-x-x-7--||--7-x-x-x-7--5-x-x-x-5--7-x-x-x-7--||--7-x-x-x-7--3-x-x-x-3--5-x-x-x-5--||--5-x-x-x-5------------------------|
fill-in 2(accoustic)|--------------------------------------||-----------1--0--------------------2--||--------2--------2--------------0-----||-----2--------------2--------2--------||--0--------------------0--3-----------||--------------------------------------|
|---------------------------------------------0--||-----------1--0------------------------------1--||--------2--------2--------------0--------0---2--||-----2--------------2--------2--------4------2--||--0--------------------0--3--------5------------||------------------------------------------------|
Verse 2|--------------------------|--------------------------||--------------------------|--------------------------||--------4-----5--4-----4--|--------4-----5--4-----4--||-----2-----2--------2-----|-----2-----2--------2-----||--0-----------------------|--3-----------------------||--------------------------|--------------------------|
|--------------------------|--------------------------||--------------------------|--------------------------||--------0-----5--0-----0--|--------4-----5~----------||-----4-----4--------4-----|-----2-----2--------------||--5-----------------------|--3-----------------------||--------------------------|--------------------------| Play this 4 times
(chorus) (intro)
Riff1 (Both guitars)|--8-7-8-7-8-7-8-7----------5-8-7---|--8-7-8-7-8-7-8-7-----------5-12-10--||------------------5---5-5-6--------|------------------5---5-5-6----------||-----------------------------------|-------------------------------------||-----------------------------------|-------------------------------------||-----------------------------------|-------------------------------------||-----------------------------------|-------------------------------------| Play riff 1 twice
Riff 2|----------------------------------|------------------|------------------||----------------------------------|------------------|------------------||-9-x-x-x-x-x-x-x-x-x-x-x-x-x-x-x--|------------------|-9-x-x-x-x-x-x-x--||-9-x-x-x-x-x-x-x-x-x-x-x-x-x-x-x--|-10-x-x-x-x-x-x-x-|-9-x-x-x-x-x-x-x--||-7-x-x-x-x-x-x-x-x-x-x-x-x-x-x-x--|-10-x-x-x-x-x-x-x-|-5-x-x-x-x-x-x-x--||----------------------------------|--8-x-x-x-x-x-x-x-|------------------|
|----------------------------------|------------------|------------------||----------------------------------|------------------|------------------||-9-x-x-x-x-x-x-x-x-x-x-x-x-x-x-x--|------------------|-9-x-x-x-x-x-x-x--||-9-x-x-x-x-x-x-x-x-x-x-x-x-x-x-x--|-10-x-x-x-x-x-x-x-|-9-x-x-x-x-x-x-x--||-7-x-x-x-x-x-x-x-x-x-x-x-x-x-x-x--|-10-x-x-x-x-x-x-x-|-5-x-x-x-x-x-x-x--||----------------------------------|--8-x-x-x-x-x-x-x-|------------------|
|----------------------------------|------------------|------------------||----------------------------------|------------------|------------------||-9-x-x-x-x-x-x-x-x-x-x-x-x-x-x-x--|------------------|------------------||-9-x-x-x-x-x-x-x-x-x-x-x-x-x-x-x--|-10-x-x-x-x-x-x-x-|-5-x-x-x-x-x-x-x--||-7-x-x-x-x-x-x-x-x-x-x-x-x-x-x-x--|-10-x-x-x-x-x-x-x-|-5-x-x-x-x-x-x-x--||----------------------------------|--8-x-x-x-x-x-x-x-|-3-x-x-x-x-x-x-x--|
|----------------------------------|------------------|------------------||----------------------------------|------------------|------------------||-9-x-x-x-x-x-x-x-x-x-x-x-x-x-x-x--|------------------|-9-x-x-x-x-x-x-x--||-9-x-x-x-x-x-x-x-x-x-x-x-x-x-x-x--|-10-x-x-x-x-x-x-x-|-9-x-x-x-x-x-x-x--||-7-x-x-x-x-x-x-x-x-x-x-x-x-x-x-x--|-10-x-x-x-x-x-x-x-|-5-x-x-x-x-x-x-x--||----------------------------------|--8-x-x-x-x-x-x-x-|------------------| Play this to the solo
SOLO|----------------17-15-14----------|-19-17-------------|------------------||-15b17--15b17------------17-15-17-|-------20-19-20-19-|15-15-15-15-15----||----------------------------------|-------------------|------------------||----------------------------------|-------------------|------------------||----------------------------------|-------------------|------------------||----------------------------------|-------------------|------------------|
|-19-19-20-17-19-15-17-14-15-12-14p-12----12|-19-17--------------------||-------------------------------------h15---|-------20-19-20-19--------||-------------------------------------------|-------------------19-----||-------------------------------------------|----------------------19--||-------------------------------------------|--------------------------||-------------------------------------------|--------------------------|
|-------|-------------17--------------17-|-19-17--------------------||-------|-17-17-19-20-----17-17-19-20----|-------20-19-20-19--------||-------|--------------------------------|-------------------19-----||-17-16-|--------------------------------|----------------------19--||-------|--------------------------------|--------------------------||-------|--------------------------------|--------------------------|
|-------|-------------------------17-------------------||-17-16-|-17-17-19-20-19-17-19-20----20-19-20-19-17----||-------|-------------------------------------------19-||-------|----------------------------------------------||-------|----------------------------------------------||-------|----------------------------------------------|
|-17----------------|----------------------------------||----20-19-20-19-17-|----------------------------------||-------------------|-19-------------------------------||-------------------|----------------------------------||-------------------|----------------------------------||-------------------|----------------------------------|
(chorus 2x) (outro same as intro) I get in from work at 2 a.m. And sit down with a beer turn on late night TV And then wonder why I'm here It's meaningless and trivial And it washes over me And once again I wonder Is this all there is for me Here I am again Look at me again Here I am again On my own Trying hard to see What there is for me Here I am again On my own Life seens so pathetic I wish I could leave it all behind This canvas chair, this bed, These walls that fall in on my mind Hold on for something better That just drags you through the dirt Do you just let go or carry on And try to take the hurt Here I am again Look at me again Here I am again On my own Trying hard to see What there is for me Here I am again On my own --====================987654321_0==_ Content-Type: text/plain; charset="us-ascii" --====================987654321_0==_--
Tap to rate this tab
 
# A B C D E F G H I J K L M N O P Q R S T U V W X Y Z